Song name
# A B C D E F G H I J K L M N O P Q R S T U V W X Y Z

Bucovina - Luna Preste Varfuri tab

-------------------------------------------------------------------------------
                    Luna peste varfuri (solo) - Bucovina
-------------------------------------------------------------------------------
Tabbed by: alexkiro
E-mail: alex@alexkiro.com

Tuning: Standard

1) First Part

e|---------------------|-----------------------|---------------------|
B|---------------------|-----------------------|---------------------|
G|---------------------|-----------------------|---------------------|
D|-------3~------------|-------3~--------3-5-5-|-------3~------------|
A|-3-5-6---6p5h6p5-3-3-|-3-5-6---6-5-6-5-------|-3-5-6---6p5h6p5-3-3-|
E|---------------------|-----------------------|---------------------|

e|---------------------|
B|---------------------|
G|---------------------|
D|-5-3---3-------------|
A|-----6---6-5-3-1/3~--|
E|---------------------|

2) Second Part

e|-------------------------------|----------------------------------|
B|-------------------------------|----------------------------------|
G|----------10~------------------|----------10-------------10-12-12-|
D|-10-12-13----13p12h13p12-10-10-|-10-12-13----13-12-13-12----------|
A|-------------------------------|----------------------------------|
E|-------------------------------|----------------------------------|

e|-------------------------------|----------------------------------|
B|-------------------------------|----------------------------------|
G|----------10~------------------|-12-10----10----------------------|
D|-10-12-13----13p12h13p12-10-10-|-------13----13-12-10-8/10~-------|
A|-------------------------------|----------------------------------|
E|-------------------------------|----------------------------------|

3) Third Part

e|------------------------------------|-------------------------------|
B|------------------------------------|-------------------------------|
G|-------------------12-12h13p12/10~--|----------10----------10h12-12-|
D|-10-10h13p10h12-10---------------13-|-10-12-13----12-13-12----------|
A|------------------------------------|-------------------------------|
E|------------------------------------|-------------------------------|

e|------------------------------------|-------------------------------|
B|------------------------------------|-------------------------------|
G|-------------------12-12h13p12/10~--|----------10-------------------|
D|-10-10h13p10h12-10---------------13-|-10-12-13----12-13-10-8/10~----|
A|------------------------------------|-------------------------------|
E|------------------------------------|-------------------------------|

3) Final Part

e|-----------------------------|--------------------------------|
B|----------13---11------------|--------------------------------|
G|----13p12---12---13-12-10----|----------10-----------10-12-12-|
D|-10-----------------------13-|-10-12-13----13-12-13-----------|
A|-----------------------------|--------------------------------|
E|-----------------------------|--------------------------------|

e|-----------------------------|--------------------------------|
B|----------13---11------------|--------------------------------|
G|----13p12---12---13-12-10----|----------10--------------------|
D|-10-----------------------13-|-10-12-13----13-12-10-8/10------|
A|-----------------------------|--------------------------------|
E|-----------------------------|--------------------------------|


************************************

| /   slide up
| \   slide down
| h   hammer-on
| p   pull-off
| ~   vibrato
| +   harmonic
| x   Mute note
| b   Bend
| pb  Pre-bend
| br  Bend release
| pbr Pre-bend release
| brb Bend release bend

************************************
Tap to rate this tab
# A B C D E F G H I J K L M N O P Q R S T U V W X Y Z