Song name
# A B C D E F G H I J K L M N O P Q R S T U V W X Y Z

Buddy Baker - Grim Grinning Ghosts tab

-------------------------------------------------------------------------------
                        Grim Grinning Ghosts- Buddy Baker
-------------------------------------------------------------------------------
Tabbed by:Strummersam20
E-mail:*see profile*

Tuning:standard

e|---------------------------------------------------------------------------|
B|---------------------------------------------------------------------------|
G|---------------------------------------------------------------------------|
D|---2-1-------0-1---2----------2-1-------0-----2-------1--2-2-2-2-2-0-------|
A|-0-----2-0-3----------------0-----2-0-3---1---------0----------------3-2-0-|
E|---------------------1--------------------------1--------------------------|

e|---0-------------0-0-0-0-0-------------0-------------0-0-0-0-0-------------|
B|-----4-0---1-3-0-----------3-1-0---------4-0---1-3-0-----------3-1-0-------|
G|-2-------2-----------------------2---2-------2-----------------------2-----|
D|-----------------2-------2-0-------------------------2-------2-0-----------|
A|-0---2-2-0-3-2-2-------------3-2-0---0---2-2-0-3-2-2-------------3-2-0-----|
E|---------------------------------------------------------------------------|
+fast bit+
e|R|---------0-0-------------------------------------0-0-0-0-0-0------------|
B|R|-------------4-4-4-0-0-0-0-----1-1-3-3-3--------------------------------|
G|R|-2-2-2-2-------------------2-2-----------4-4-4-4------------------------|
D|R|-------------------------------------------------------------3-3-3-3-3--|
A|R|------------------------------------------------------------------------|
E|R|------------------------------------------------------------------------|

e|-0-0-0-0-0--------->-|R|
B|-----------3-1-0--->-|R|
G|-----------------2->-|R|
D|------------------->-|R|
A|------------------->-|R|
E|------------------->-|R|



************************************

| /   slide up
| \   slide down
| h   hammer-on
| p   pull-off
| ~   vibrato
| +   harmonic
| x   Mute note
| b   Bend
| pb  Pre-bend
| br  Bend release
| pbr Pre-bend release
| brb Bend release bend
| >speed up
| |R|  repeat 
************************************
Tap to rate this tab
 
# A B C D E F G H I J K L M N O P Q R S T U V W X Y Z