Song name
# A B C D E F G H I J K L M N O P Q R S T U V W X Y Z

Buddy Brown - Take A Back Road Rodney Atkins Cover tab

-------------------------------------------------------------------------------
                 Take a Back Road - Covered by Buddy Brown
                                   - Famous by Rodney Atkins
                                    - Written by Rhett Akins
-------------------------------------------------------------------------------
Tabbed by: SomeRandomLeech
Email: unkn0wnfr34k-ultimateguitar@yahoo.com

Tuning: Standard


This is an attempted tab of Buddy Brown's cover version of Rodney Atkins'
Take a Back Road (http://www.youtube.com/watch?v=cKQSz8D943s). He also has his own music 
worth checking out: http://buddybrowncountry.com/. I'm far from
experienced and this is my first attempt at chords. However, this took me
several hours and I think it's fairly accurate. Corrections are still welcome
though. Listen for where to mute.


[Intro]
[0:00]
e||--3-3-3--3-3---3-3------|--0-0--0-0-0---0-0-3-3-3-3--|
B||--3-3-3--3-3---3-3-0-0--|--0-0--0-0-0---0-0-0-0-0-0--|
G||--2-0-2h-2-2---2-2-4-4--|--0-2h-2-2-2---2-2-0-0-0-0--|
D||--0-0-0--0-0---0-0-4-4--|--0-2h-2-2-2---2-2-0-0-0-0--|
A||--0-0-0--0-0---0-0-2-2--|--0-0--0-0-0---0-0-0-0-0-0--|
E||--3-3-3--3-3---3-3------|--2-2--2-2-2---2-2-2-2-2-2--|

e|--3-3-3-3-3---3-3---3-3-3-3--|---0-0--0-0---0---0---0-0-0-0--||
B|--3-3-3-3-3---3-3---3-3-3-3--|---0-0--0-0---0---0---0-0-0-0--||
G|--0-0-0-0-0---0-0---0-0-0-0--|---0-2h-2-2---2---2---2-2-2-2--||
D|--0-0-0-0-0---0-0---0-0-0-0--|---0-2h-2-2---2---2---2-2-2-2--||
A|--2-2-2-2-2---2-2---2-2-2-2--|---0-0--0-0---0---0---0-0-0-0--||
E|--3-3-3-3-3---3-3---3-3-3-3--|---2-2--2-2---2---2---2-2-2-2--||


[Verse]
[0:23]
e||--3-3-3--3-3-3-3-3-3--|--0-0--0-0-0-0-0-0-0--|
B||--3-3-3--3-3-3-3-3-3--|--0-0--0-0-0-0-0-0-0--|
G||--2-0-2h-2-2-2-2-2-2--|--0-2h-2-2-2-2-2-2-2--|
D||--0-0-0--0-0-0-0-0-0--|--0-2h-2-2-2-2-2-2-2--|
A||--0-0-0--0-0-0-0-0-0--|--0-0--0-0-0-0-0-0-0--|
E||--3-3-3--3-3-3-3-3-3--|--2-2--2-2-2-2-2-2-2--|

e|--3-3--3-3-3---3-3---3-3-3-3--|---3-3--3-------0-0---||
B|--3-3--3-3-3---3-3---3-3-3-3--|---3-3--3-------0-0---||
G|--0-0--0-0-0---0-0---0-0-0-0--|---0-0--0-------0-2h--||
D|--0-0--0-0-0---0-0---0-0-0-0--|---0-0--0-------0-2h--||
A|--2-2--2-2-2---2-2---2-2-2-2--|---0-2h-2-------0-0---||
E|--0-3h-3-3-3---3-3---3-3-3-3--|---0-3h-3-------0-2h--||

e||--3-3-3--3-3-3-3-3-3--|--0-0--0-0-0-0-0-0-0--|
B||--3-3-3--3-3-3-3-3-3--|--0-0--0-0-0-0-0-0-0--|
G||--2-0-2h-2-2-2-2-2-2--|--0-2h-2-2-2-2-2-2-2--|
D||--0-0-0--0-0-0-0-0-0--|--0-2h-2-2-2-2-2-2-2--|
A||--0-0-0--0-0-0-0-0-0--|--0-0--0-0-0-0-0-0-0--|
E||--3-3-3--3-3-3-3-3-3--|--2-2--2-2-2-2-2-2-2--|

e|--3-3--3-3-3---3-3---3-3-3-3--|---3-3--3----------0--||
B|--3-3--3-3-3---3-3---3-3-3-3--|---3-3--3----------0--||
G|--0-0--0-0-0---0-0---0-0-0-0--|---0-0--0----------2--||
D|--0-0--0-0-0---0-0---0-0-0-0--|---0-0--0----------2--||
A|--2-2--2-2-2---2-2---2-2-2-2--|---0-2h-2----------0--||
E|--0-3h-3-3-3---3-3---3-3-3-3--|---0-3h-3----------2--||


[Chorus]
[0:45]
e||--3-3-3--3-3---3-3------|--0-0--0-0-0---0-0-0-0-0-0--|
B||--3-3-3--3-3---3-3-0-0--|--0-0--0-0-0---0-0-0-0-0-0--|
G||--2-0-2h-2-2---2-2-4-4--|--0-2h-2-2-2---2-2-2-2-2-2--|
D||--0-0-0--0-0---0-0-4-4--|--0-2h-2-2-2---2-2-2-2-2-2--|
A||--0-0-0--0-0---0-0-2-2--|--0-0--0-0-0---0-0-0-0-0-0--|
E||--3-3-3--3-3---3-3------|--2-2--2-2-2---2-2-2-2-2-2--|

e|--3-3-3-3-3-3--3-3-3-3-3-3--3-3-3-3-3-3-3-3-3--0-0--|
B|--3-3-3-3-3-3--3-3-3-3-3-3--3-3-3-3-3-3-3-3-3--0-0--|
G|--0-0-0-0-0-0--2-2-2-2-2-2--0-0-0-0-0-0-0-0-0--2-2--|
D|--0-0-0-0-0-0--0-0-0-0-0-0--0-0-0-0-0-0-0-0-0--2-2--|
A|--2-2-2-2-2-2--0-0-0-0-0-0--2-2-2-2-2-2-2-2-2--0-0--|
E|--0-0-0-0-0-0--2-2-2-2-2-2--3-3-3-3-3-3-3-3-3--2-2--|

e|--3-3-3--3-3---3-3------|--0-0--0-0-0---0-0-0-0-0-0--|
B|--3-3-3--3-3---3-3-0-0--|--0-0--0-0-0---0-0-0-0-0-0--|
G|--2-0-2h-2-2---2-2-4-4--|--0-2h-2-2-2---2-2-2-2-2-2--|
D|--0-0-0--0-0---0-0-4-4--|--0-2h-2-2-2---2-2-2-2-2-2--|
A|--0-0-0--0-0---0-0-2-2--|--0-0--0-0-0---0-0-0-0-0-0--|
E|--3-3-3--3-3---3-3------|--2-2--2-2-2---2-2-2-2-2-2--|

e|--3-3-3-3-3-3--3-3-3-3-3-3--3-3-3-3-3-3-3-3-3-----3-3-3-3---0-0--||
B|--3-3-3-3-3-3--3-3-3-3-3-3--3-3-3-3-3-3-3-3-3-----3-3-3-3---0-0--||
G|--0-0-0-0-0-0--2-2-2-2-2-2--0-0-0-0-0-0-0-0-0-----0-0-0-0---2-2--||
D|--0-0-0-0-0-0--0-0-0-0-0-0--0-0-0-0-0-0-0-0-0-----0-0-0-0---2-2--||
A|--2-2-2-2-2-2--0-0-0-0-0-0--2-2-2-2-2-2-2-0-2h----2-2-0-2h--0-0--||
E|--0-0-0-0-0-0--2-2-2-2-2-2--3-3-3-3-3-3-3-0-3h----3-3-0-3h--2-2--||


[Post-Chorus]
[1:09]
e||--3-3-3--3-3---3-3------|--0-0--0-0-0---0-0-3-3-3-3--|
B||--3-3-3--3-3---3-3-0-0--|--0-0--0-0-0---0-0-0-0-0-0--|
G||--2-0-2h-2-2---2-2-4-4--|--0-2h-2-2-2---2-2-0-0-0-0--|
D||--0-0-0--0-0---0-0-4-4--|--0-2h-2-2-2---2-2-0-0-0-0--|
A||--0-0-0--0-0---0-0-2-2--|--0-0--0-0-0---0-0-0-0-0-0--|
E||--3-3-3--3-3---3-3------|--2-2--2-2-2---2-2-2-2-2-2--|

e|--3-3-3-3-3---3-3---3-3-3-3--|---0-0--0-0---0-0-0-0-0-0--||
B|--3-3-3-3-3---3-3---3-3-3-3--|---0-0--0-0---0-0-0-0-0-0--||
G|--0-0-0-0-0---0-0---0-0-0-0--|---0-2h-2-2---2-2-2-2-2-2--||
D|--0-0-0-0-0---0-0---0-0-0-0--|---0-2h-2-2---2-2-2-2-2-2--||
A|--2-2-2-2-2---2-2---2-2-2-2--|---0-0--0-0---0-0-0-0-0-0--||
E|--3-3-3-3-3---3-3---3-3-3-3--|---2-2--2-2---2-2-2-2-2-2--||


[Verse]
[1:20]
e||--3-3-3--3-3-3-3-3-3--|--0-0--0-0-0-0-0-0-0--|
B||--3-3-3--3-3-3-3-3-3--|--0-0--0-0-0-0-0-0-0--|
G||--2-0-2h-2-2-2-2-2-2--|--0-2h-2-2-2-2-2-2-2--|
D||--0-0-0--0-0-0-0-0-0--|--0-2h-2-2-2-2-2-2-2--|
A||--0-0-0--0-0-0-0-0-0--|--0-0--0-0-0-0-0-0-0--|
E||--3-3-3--3-3-3-3-3-3--|--2-2--2-2-2-2-2-2-2--|

e|--3-3--3-3-3---3-3---3-3-3-3--|---3-3--3-------------||
B|--3-3--3-3-3---3-3---3-3-3-3--|---3-3--3-------------||
G|--0-0--0-0-0---0-0---0-0-0-0--|---0-0--0-------------||
D|--0-0--0-0-0---0-0---0-0-0-0--|---0-0--0-------------||
A|--2-2--2-2-2---2-2---2-2-2-2--|---0-2h-2-------------||
E|--0-3h-3-3-3---3-3---3-3-3-3--|---0-3h-3-------------||

e||--3-3-3--3-3-3-3-3-3--|--0-0--0-0-0-0-0-0-0--|
B||--3-3-3--3-3-3-3-3-3--|--0-0--0-0-0-0-0-0-0--|
G||--2-0-2h-2-2-2-2-2-2--|--0-2h-2-2-2-2-2-2-2--|
D||--0-0-0--0-0-0-0-0-0--|--0-2h-2-2-2-2-2-2-2--|
A||--0-0-0--0-0-0-0-0-0--|--0-0--0-0-0-0-0-0-0--|
E||--3-3-3--3-3-3-3-3-3--|--2-2--2-2-2-2-2-2-2--|

e|--3-3--3-3-3---3-3---3-3-3-3--|---3-3--3----------0--||
B|--3-3--3-3-3---3-3---3-3-3-3--|---3-3--3----------0--||
G|--0-0--0-0-0---0-0---0-0-0-0--|---0-0--0----------2--||
D|--0-0--0-0-0---0-0---0-0-0-0--|---0-0--0----------2--||
A|--2-2--2-2-2---2-2---2-2-2-2--|---0-2h-2----------0--||
E|--0-3h-3-3-3---3-3---3-3-3-3--|---0-3h-3----------2--||


[Chorus]
[1:42]
e||--3-3-3--3-3---3-3------|--0-0--0-0-0---0-0-0-0-0-0--|
B||--3-3-3--3-3---3-3-0-0--|--0-0--0-0-0---0-0-0-0-0-0--|
G||--2-0-2h-2-2---2-2-4-4--|--0-2h-2-2-2---2-2-2-2-2-2--|
D||--0-0-0--0-0---0-0-4-4--|--0-2h-2-2-2---2-2-2-2-2-2--|
A||--0-0-0--0-0---0-0-2-2--|--0-0--0-0-0---0-0-0-0-0-0--|
E||--3-3-3--3-3---3-3------|--2-2--2-2-2---2-2-2-2-2-2--|

e|--3-3-3-3-3-3--3-3-3-3-3-3--3-3-3-3-3-3-3-3-3--0-0--|
B|--3-3-3-3-3-3--3-3-3-3-3-3--3-3-3-3-3-3-3-3-3--0-0--|
G|--0-0-0-0-0-0--2-2-2-2-2-2--0-0-0-0-0-0-0-0-0--2-2--|
D|--0-0-0-0-0-0--0-0-0-0-0-0--0-0-0-0-0-0-0-0-0--2-2--|
A|--2-2-2-2-2-2--0-0-0-0-0-0--2-2-2-2-2-2-2-2-2--0-0--|
E|--0-0-0-0-0-0--2-2-2-2-2-2--3-3-3-3-3-3-3-3-3--2-2--|

e|--3-3-3--3-3---3-3------|--0-0--0-0-0---0-0-0-0-0-0--|
B|--3-3-3--3-3---3-3-0-0--|--0-0--0-0-0---0-0-0-0-0-0--|
G|--2-0-2h-2-2---2-2-4-4--|--0-2h-2-2-2---2-2-2-2-2-2--|
D|--0-0-0--0-0---0-0-4-4--|--0-2h-2-2-2---2-2-2-2-2-2--|
A|--0-0-0--0-0---0-0-2-2--|--0-0--0-0-0---0-0-0-0-0-0--|
E|--3-3-3--3-3---3-3------|--2-2--2-2-2---2-2-2-2-2-2--|

e|--3-3-3-3-3-3--3-3-3-3-3-3--|--3-3-3-3-3-3-3-3-3-----3-3-3-3---0-0--||
B|--3-3-3-3-3-3--3-3-3-3-3-3--|--3-3-3-3-3-3-3-3-3-----3-3-3-3---0-0--||
G|--0-0-0-0-0-0--2-2-2-2-2-2--|--0-0-0-0-0-0-0-0-0-----0-0-0-0---2-2--||
D|--0-0-0-0-0-0--0-0-0-0-0-0--|--0-0-0-0-0-0-0-0-0-----0-0-0-0---2-2--||
A|--2-2-2-2-2-2--0-0-0-0-0-0--|--2-2-2-2-2-2-2-0-2h----2-2-0-2h--0-0--||
E|--0-0-0-0-0-0--2-2-2-2-2-2--|--3-3-3-3-3-3-3-0-3h----3-3-0-3h--2-2--||


[Post-Chorus]
[2:06]
e||--3-3-3--3-3---2-2------|--0-0--0-0-0---0-0-3-3-3-3--|
B||--3-3-3--3-3---3-3-0-0--|--0-0--0-0-0---0-0-0-0-0-0--|
G||--2-0-2h-2-2---2-2-4-4--|--0-2h-2-2-2---2-2-0-0-0-0--|
D||--0-0-0--0-0---0-0-4-4--|--0-2h-2-2-2---2-2-0-0-0-0--|
A||--0-0-0--0-0-------2-2--|--0-0--0-0-0---0-0-0-0-0-0--|
E||--3-3-3--3-3------------|--2-2--2-2-2---2-2-2-2-2-2--|

e|--3-3-3-3-3---3-3---3-3-3-3--|---0-0--0-0---0-0-0-0-0-0--||
B|--3-3-3-3-3---3-3---3-3-3-3--|---0-0--0-0---0-0-0-0-0-0--||
G|--0-0-0-0-0---0-0---0-0-0-0--|---0-2h-2-2---2-2-2-2-2-2--||
D|--0-0-0-0-0---0-0---0-0-0-0--|---0-2h-2-2---2-2-2-2-2-2--||
A|--2-2-2-2-2---2-2---2-2-2-2--|---0-0--0-0---0-0-0-0-0-0--||
E|--3-3-3-3-3---3-3---3-3-3-3--|---2-2--2-2---2-2-2-2-2-2--||


[Bridge]
[2:16]
e||--0-0--0-0--0-0-0-0---0-0---|---0-0-0-0--0-0-0-0--0-0--|
B||--0-0--0-0--0-0-0-0---0-0---|---0-0-0-0--0-0-0-0--0-0--|
G||--4-4--4-4--4-4-4-4---4-4---|---2-2-2-2--2-2-2-2--2-2--|
D||--4-4--4-4--4-4-4-4---4-4---|---2-2-2-2--2-2-2-2--2-2--|
A||--0-2h-2-2--2-2-2-2---2-2---|---0-0-0-0--0-0-0-0--0-0--|
E||--0-0--0-0--0-0-0-0---0-0---|---2-2-2-2--2-2-2-2--2-2--|

e|--3-3-3-3--3-3-3-3---3-3---|---0-0-0-0--0-0-0-0--0-0--|
B|--3-3-3-3--3-3-3-3---3-3---|---0-0-0-0--0-0-0-0--0-0--|
G|--0-0-0-0--0-0-0-0---0-0---|---2-2-2-2--2-2-2-2--2-2--|
D|--0-0-0-0--0-0-0-0---0-0---|---2-2-2-2--2-2-2-2--2-2--|
A|--2-2-2-2--2-2-2-2---2-2---|---0-0-0-0--0-0-0-0--0-0--|
E|--3-3-3-3--3-3-3-3---3-3---|---2-2-2-2--2-2-2-2--2-2--|

e|--3-3--3-3--3-3--0-0--||
B|--3-3--3-3--3-3--0-0--||
G|--0-0--0-0--0-0--2-2--||
D|--0-0--0-0--0-0--2-2--||
A|--2-2--0-0--2-2--0-0--||
E|--0-0--2-2--3-3--2-2--||


[Chorus]
[2:29]
e||--3-3-3--3-3---3-3------|--0-0--0-0-0---0-0-0-0-0-0--|
B||--3-3-3--3-3---3-3-0-0--|--0-0--0-0-0---0-0-0-0-0-0--|
G||--2-0-2h-2-2---2-2-4-4--|--0-2h-2-2-2---2-2-2-2-2-2--|
D||--0-0-0--0-0---0-0-4-4--|--0-2h-2-2-2---2-2-2-2-2-2--|
A||--0-0-0--0-0---0-0-2-2--|--0-0--0-0-0---0-0-0-0-0-0--|
E||--3-3-3--3-3---3-3------|--2-2--2-2-2---2-2-2-2-2-2--|

e|--3-3-3-3-3-3--3-3-3-3-3-3--3-3-3-3-3-3-3-3-3--0-0--|
B|--3-3-3-3-3-3--3-3-3-3-3-3--3-3-3-3-3-3-3-3-3--0-0--|
G|--0-0-0-0-0-0--2-2-2-2-2-2--0-0-0-0-0-0-0-0-0--2-2--|
D|--0-0-0-0-0-0--0-0-0-0-0-0--0-0-0-0-0-0-0-0-0--2-2--|
A|--2-2-2-2-2-2--0-0-0-0-0-0--2-2-2-2-2-2-2-2-2--0-0--|
E|--0-0-0-0-0-0--2-2-2-2-2-2--3-3-3-3-3-3-3-3-3--2-2--|

e|--3-3-3--3-3---3-3------|--0-0--0-0-0---0-0-0-0-0-0--|
B|--3-3-3--3-3---3-3-0-0--|--0-0--0-0-0---0-0-0-0-0-0--|
G|--2-0-2h-2-2---2-2-4-4--|--0-2h-2-2-2---2-2-2-2-2-2--|
D|--0-0-0--0-0---0-0-4-4--|--0-2h-2-2-2---2-2-2-2-2-2--|
A|--0-0-0--0-0---0-0-2-2--|--0-0--0-0-0---0-0-0-0-0-0--|
E|--3-3-3--3-3---3-3------|--2-2--2-2-2---2-2-2-2-2-2--|

e|--3-3-3-3-3-3--3-3-3-3-3-3--3-3-3-3-3-3-3-3-3-----3-3-3-3---0-0--||
B|--3-3-3-3-3-3--3-3-3-3-3-3--3-3-3-3-3-3-3-3-3-----3-3-3-3---0-0--||
G|--0-0-0-0-0-0--2-2-2-2-2-2--0-0-0-0-0-0-0-0-0-----0-0-0-0---2-2--||
D|--0-0-0-0-0-0--0-0-0-0-0-0--0-0-0-0-0-0-0-0-0-----0-0-0-0---2-2--||
A|--2-2-2-2-2-2--0-0-0-0-0-0--2-2-2-2-2-2-2-0-2h----2-2-0-2h--0-0--||
E|--0-0-0-0-0-0--2-2-2-2-2-2--3-3-3-3-3-3-3-0-3h----3-3-0-3h--2-2--||


[Lead-out]
[2:53]
e||--3-3-3--3-3---3-3------|--0-0--0-0-0---0-0-3-3-3-3--|
B||--3-3-3--3-3---3-3-0-0--|--0-0--0-0-0---0-0-0-0-0-0--|
G||--2-0-2h-2-2---2-2-4-4--|--0-2h-2-2-2---2-2-0-0-0-0--|
D||--0-0-0--0-0---0-0-4-4--|--0-2h-2-2-2---2-2-0-0-0-0--|
A||--0-0-0--0-0---0-0-2-2--|--0-0--0-0-0---0-0-0-0-0-0--|
E||--3-3-3--3-3---3-3------|--2-2--2-2-2---2-2-2-2-2-2--|

e|--3-3-3-3-3---3-3---3-3-3-3--|---0-0--0-0-0-0-0--|
B|--3-3-3-3-3---3-3---3-3-3-3--|---0-0--0-0-0-0-0--|
G|--0-0-0-0-0---0-0---0-0-0-0--|---0-2h-2-2-2-2-2--|
D|--0-0-0-0-0---0-0---0-0-0-0--|---0-2h-2-2-2-2-2--|
A|--2-2-2-2-2---2-2---2-2-2-2--|---0-0--0-0-0-0-0--|
E|--3-3-3-3-3---3-3---3-3-3-3--|---2-2--2-2-2-2-2--|

e||--3~---0~-0-0---2~--||
B||--3~---0~-0-0---3~--||
G||--0~---2~-2-2---2~--||
D||--0~---2~-2-2---0~--||
A||--2~---0~-0-0-------||
E||--3~---2~-2-2-------||

************************************

| h   hammer-on
| p   pull-off
| ~   let ring

************************************
Tap to rate this tab
# A B C D E F G H I J K L M N O P Q R S T U V W X Y Z