Song name
# A B C D E F G H I J K L M N O P Q R S T U V W X Y Z

Buddy Guy - Ive Got Dreams To Remember tab

I've Got Dreams To Remember

Words and Music by: Otis Redding

Performed by: Buddy Guy and John Mayer

Transcribed by: Gabe

Album: Bring Em In

Key:

h -Hammer On
p -Pull Off
x -Muted Note
/ -Slide Up
\ -Slide Down
b -Bend
r -Release
~ -Let Ring

Note: The chords in this song are picked.

Verse's & Chorus

e------5-------------------|
b--5---7---5---7-----------|
g--6---7---6---7-----------|
d--7-------7---7-----------|
a--x-------x---5-----------|
E--5-------5---------------|
"Ive got dreams to...."


Pre-Chorus

e-----------------------------------|
b--------5--5---------5--5--9-------|
g--------4--6---------4--6--9-------|
d--------6--7---------6--7--9-------|
a-5-6-7-(7)-x--5-6-7-(7)-x--7-------|
E-----------5------------5----------|
"Honey I saw you..."
"I know you said he..."


Pre-Chorus 2

e-------------------------------|
b--------5---10--7---5----------|
g--------4---9---7---4----------|
d--------6---10--7---6----------|
a-5-6-7-(7)--9---5--(7)---------|
E-------------------------------|
"I still want you to..."

Solo

e-----------------------------------------------------------------|
b-------10-------------10~-------10~--------10--12/14~------------|
g--9h11----(11~)--9h11------9h11-------9h11-----------------------|
d-----------------------------------------------------------------|
a-----------------------------------------------------------------|
E-----------------------------------------------------------------|


e----------------------------12h14~--12h14p12-------------------------------|
b--14\12--12~--10~--12/14~--------------------12b14r--10----12b14r12b14r----|
g--------------------------------------------------------11-----------------|
d---------------------------------------------------------------------------|
a---------------------------------------------------------------------------|
E---------------------------------------------------------------------------|

e--10--------------17~----------------------------------------|
b-----12b14r-10--------------12b14r--12br-12br----------------|
g--------------------------x----------------------------------|
d------------------------x------------------------------------|
a-------------------------------------------------------------|
E-------------------------------------------------------------|

Outro

e-----------------5---------|
b--5--4--3--7--5--7---------|
g--6--5--4--7--6--7---------|
d--7--6--5--7--7------------|
a--x--x--x--5--x------------|
E--5--4--3-----5------------|
	      |Repeat These Chords as needed|
Tap to rate this tab
# A B C D E F G H I J K L M N O P Q R S T U V W X Y Z