Song name
# A B C D E F G H I J K L M N O P Q R S T U V W X Y Z

Buddy Guy - Messin With The Kid tab

I wasn't sure whether this was jr wells or buddy guy because buddy plays it
but jr sings it.  So any way hope this helps you.
					Swishy

This is the main riff and chords to this song it's pretty simple.

e|--7--5-------------------|
B|--------7--5-------------|
G|--------------7-6-7---4--|
D|--------------------7----|
A|-------------------------|
E|-------------------------|

e|-------------------------------------|
B|-------7-----------------9------7----|
G|-7-----7h9---7-----7-----9h11---7h9--|then play the main riff
D|-7h9---7h9---7h9---7h9---9h11---7h9--|
A|-7h9---7-----7h9---7h9---9------7----|
E|-7-----------7-----7-----------------|

after each chord you strum in some imposible to tab pattern
Just listen to the song to figure it out.

You can find this song on Muddy Waters "Messin' with the blues" DVD
Tap to rate this tab
# A B C D E F G H I J K L M N O P Q R S T U V W X Y Z