Song name
# A B C D E F G H I J K L M N O P Q R S T U V W X Y Z

Buddy Guy - Stay All Night tab

E-----------------------------------------------------------------------------|
B--/8-8--8--8---8\/6-6--6--6-----------5------------------5-------------------|
G--/9---9--9--9-9\/7---7--7--7---------5--7-7--------7-7--5-------------------|
D---------------------------------5-7-----7-7---5-7--7-7----------------------|
A-------------------------------/7------------/7------------------------------|
E-----------------------------------------------------------------------------|

E---------------------------------------------------------------------------|
B-----------5---------------------------------------------------------------|
G-----------5--7-7----------------------------------------------------------|
d------5-7-----7-7----5-7---------------------------------------------------|
A---/7-------------/7-----3-------------------------------------------------|
E----------------------------5-5--------------------------------------------|
 the rest is pretty simply he uses alot of three chord progression it a good sond play 2
Tap to rate this tab
# A B C D E F G H I J K L M N O P Q R S T U V W X Y Z