Buddy Guy - What Kind Of Woman Is This tab

|-----------------------------------------|
| buddy guy- what kind of woman is this                                        |
|                                         |
|-----------------------------------------|


e|-------------------------------------------|
b|-------------------------------------------|
g|-------------------------------------------|
d|----------------3--5--3--------------3-5-3-|
a|----------3--5-------------------3-5-------|
E|---5---5-----------------5-5--5------------|

that continues  and then at somepiont he goes.....



e|------11b----11-10-9--7--5-5\12-|
b|--------------------------------|
g|--------------------------------|
d|--------------------------------|
a|--------------------------------|
E|--------------------------------|



Then you just go back to the rythm part and play that until the solo and I have no 
clue about the solo....you have to figure that part out.
Tap to rate this tab
 
# A B C D E F G H I J K L M N O P Q R S T U V W X Y Z