Song name
# A B C D E F G H I J K L M N O P Q R S T U V W X Y Z

Buddy Guy - Stay All Night tab

Buddy Guy - Stay All Night

Intro
e|-----------------------------------------------------------------------|
B|-----------------------------------------------------------------------|
G|-7/8-11-8-6------------------------------------------------------------|
D|------------------------------------------------------11-11--9---------|
A|----------------6-9-11-14-11-11----6-9-11------------------------------|
E|-----------------------------------------------------------------------|

e|-----------------------------------------------------------------------|
B|-----------------------------------------------------------------------|
G|-----------------------------------------------------------------------|
D|-----------------------------------------------------------------------|
A|--6-9-11-14-11-11----6-9-6-4-------------------------------------------|
E|---------------------------------------4-4-----------------------------|

Verse Is Based on that scale not very different from the intro


e|------4-2-4--------4-2-4---------------9^--7^--------------------------|
B|-4-4---------4-4----------4-2----------------------11/13---------------|
G|---------------------------------4-------------------------------------|
D|-----------------------------------4--6--------------------------------|
A|-----------------------------------------------------------------------|
E|-----------------------------------------------------------------------|

e|-----4--2--4---7--9-9--4--7---11-11--7/9/7/9--4--2---------------------|
B|--4--------------------------------------------------------------------|
G|-----------------------------------------------------------------------|
D|-----------------------------------------------------------------------|
A|-----------------------------------------------------------------------|
E|-----------------------------------------------------------------------|

e|------4-2-4--------4-2-4---------------9^--7^--------------------------|
B|-4-4---------4-4----------4-2----------------------11/13---------------|
G|---------------------------------4-------------------------------------|
D|-----------------------------------4--6--------------------------------|
A|-----------------------------------------------------------------------|
E|-----------------------------------------------------------------------|
Tap to rate this tab
# A B C D E F G H I J K L M N O P Q R S T U V W X Y Z