Song name
# A B C D E F G H I J K L M N O P Q R S T U V W X Y Z

Buddy Holly - Think It Over tab

---------------------------------------------------------------------------
		Think it Over - Buddy Holly
---------------------------------------------------------------------------
Tabbed by: maguri
Tuning: Standard

Buddy Holly
Think it Over (1958)
(Buddy Holly/Norman Petty/Jerry Allison)
Now on: Several Greatest Hits Collections
The undubbed version now on: "Down The Line - Rarities [CD 2]"


Onto the unfinished version left after Buddy's death, a piano solo was 
overdubbed. If you want to play it on a guitar, you may try something 
like this:

SOLO
                   A
e|----------------|----------------|----------------|----------------|
B|----------------|----------------|----------------|----------------|
G|----------------|----------------|----------------|----------------|
D|----------------|------0-2-2-----|----------------|------0-2-2-----|
A|--------------0-|----4-------4-2-|0---0-2-4-----0-|----4-------4-2-|
E|----------0-2---|----/-----------|--0-------0-2---|----/-----------|
                   D                                 A
e|----------------|----------------|----------------|----------------|
B|----------------|----------------|----------------|----------------|
G|----------------|----------------|----------------|----------------|
D|----------------|----------------|----------------|----------------|
A|0---0-2-4-0-2-0-|3-0-2-0-3-0-2-0-|3-0-2-0---0-2-0-|4-0-2-0-4-0-2-0-|
E|--0-------------|----------------|----------------|/-------/-------|
                   E                D                A       D
e|----------------|----------------|----------------|----------------|
B|----------------|----------------|----------------|----------------|
G|----------------|----------------|----------------|----------------|
D|----------------|----------------|----------------|----------------|
A|4-0-2-0-------0-|2-----0-2---232-|0---0-----0-0-0-|4---4-------0---|
E|/---------0-2---|--0-2-----------|--2---2---------|--------0-----0-|
  A   E
e|----------------|
B|----------------|
G|----------------|
D|----2-----------|
A|----------------|
E|------0---------|



Intro | A | A | A | E |

A
Think it over what you just said 
A
Think it over in your pretty little head 
D
Are you sure that I'm not the one 
A
Is your love real or only fun 
             E                    D
You think it over - yes, think it over 
         A                            E
A lonely heart grows cold and old 

A
Think it over and let me know 
A
Think it over but don't be slow 
D
Just remember all birds and bees 
A
Go by twos through life's mysteries 
             E                    D
You think it over - yes, think it over 
         A                            E
A lonely heart grows cold and old 

Solo
| A | A | A | A | D | D |
| A | A | E | D | A D | A E |

A
Think it over and think of me 
A
Think it over and you will see 
D
A happy day when you and I 
A
Think as one and kiss the blues goodbye 
             E                    D
You think it over - yes, think it over 
         A                            E
A lonely heart grows cold and old

A
Think it over (over and over)
A
Think it over (over and over)
A
Think it over (over and over)
(Fade)
Tap to rate this tab
 
# A B C D E F G H I J K L M N O P Q R S T U V W X Y Z