Song name
# A B C D E F G H I J K L M N O P Q R S T U V W X Y Z

Buddy Holly - Words Of Love tab

---------------------------------------------------------------------------
		Words of Love - Buddy Holly
---------------------------------------------------------------------------
Tabbed by: maguri
Tuning: Standard

Buddy Holly
Words of love (1958)
(Buddy Holly)
From: "Buddy Holly"

INTRO
 A                 D       E        A                D       E
e|0---0---0---0--0|--2-----0-------|----0---0---0--0|--2-----0-------|
B|2---2---2---2---|----3-----2-0---|----2---2---2---|----3-----2-0---|
G|2---2---2---2---|2-----2-------1-|----2---2---2---|2-----2-------1-|
D|2---2---2---2---|----------------|2---2---2---2---|----------------|
A|0---------------|----------------|0---------------|----------------|
E|----------------|----------------|----------------|----------------|
 A                 D       E        A               (no chord)
e|----0---0---0--0|--2-----0-------|0---0---0---0---|--2-----0-------|
B|----2---2---2---|----3-----2-0---|10--5---2---5---|----3-----2-0---|
G|----2---2---2---|2-----2---------|----------------|2-----2-------1-|
D|2---2---2---2---|----------------|----------------|----------------|
A|0---------------|----------------|----------------|----------------|
E|----------------|----------------|----------------|----------------|


SOLO
 A                 D       E        A                D       E
e|0---0---0---0---|2----/5-4/7-7/9-|0---0---0---0---|2----/5-4/7-7/9-|
B|10--5---2---5---|3----/7-5/9-9/10|10--5---2---5---|3----/7-5/9-9/10|
G|----------------|----------------|----------------|----------------|
D|----------------|----------------|----------------|----------------|
A|----------------|----------------|----------------|----------------|
E|----------------|----------------|----------------|----------------|
 A                 D       E        A               (no chord)
e|0---0---0---0---|2----/5-4/7-7/9-|0---0--0-0--0---|--2-----0-------|
B|10--5---2---5---|3----/7-5/9-9/10|10--10-1010\5--0|----3-----2-0-0-|
G|----------------|----------------|----------------|2-----2---------|
D|----------------|----------------|----------------|----------------|
A|----------------|----------------|----------------|----------------|
E|----------------|----------------|----------------|----------------|
 A                 D       E        A                D       E
e|---------------0|--2-----0-------|---------------0|--2-----0-------|
B|1/2-2---2---2---|----3-----2-0-0-|1/2-2---2---2---|----3-----2-0---|
G|1/2-2---2---2---|2-----2---------|1/2-2---2---2---|2-----2-------1-|
D|----------------|----------------|----------------|----------------|
A|----------------|----------------|----------------|----------------|
E|----------------|----------------|----------------|----------------|
 A                 D       E        A               (no chord)
e|---------------0|--2-----0-------|0---0---0---0---|--2-----0-------|
B|1/2-2---2---2---|----3-----2-0-0-|10--5---2---5---|----3-----2-0---|
G|1/2-2---2---2---|2-----2---------|----------------|2-----2-------1-|
D|----------------|----------------|----------------|----------------|
A|----------------|----------------|----------------|----------------|
E|----------------|----------------|----------------|----------------|


VERSE
 A                 D       E        A                D       E
e|0---0---0---0---|1/2---3/4-------|0---0---0---0---|1/2---3/4-------|
B|2---2---2---2---|2/3---4/5-------|2---2---2---2---|2/3---4/5-------|
G|2---2---2---2---|1/2---3/4-------|2---2---2---2---|1/2---3/4-------|
D|2---2---2---2---|----------------|2---2---2---2---|----------------|
A|----------------|----------------|----------------|----------------|
E|----------------|----------------|----------------|----------------|
 A                 D       E        A                D       E
e|0---0---0---0--0|1/2---3/4-------|0---0---0---0--0|--2-----0-------|
B|2---2---2---2---|2/3---4/5-------|2---2---2---2---|----3-----2-0---|
G|2---2---2---2---|1/2---3/4-------|2---2---2---2---|2-----2-------1-|
D|2---2---2---2---|----------------|2---2---2---2---|----------------|
A|----------------|----------------|----------------|----------------|
E|----------------|----------------|----------------|----------------|


INTRO

A                D E               A      D  
Hold me close and  tell me how you feel
E               A     D
Tell me love is real
E    A      D   E
hmmmmmmmmmmmmmmmmmmm
A                D E                A      D  
Words of love you  whisper soft and true
E              A     D
Darling I love you
E    A      D   E
hmmmmmmmmmmmmmmmmmmm

SOLO


A               D       E               A      D  
Let me hear you say the words I want to hear
E                     A     D
  Darling when you're near
E    A      D   E
hmmmmmmmmmmmmmmmmmmm
A                D E                A      D  
Words of love you  whisper soft and true
E              A     D
Darling I love you
E    A      D   E
hmmmmmmmmmmmmmmmmmmm
A      D   E
hmmmmmmmmmmmmmmm
A      D   E
hmmmmmmmmmmmmmmm

(Fade)
Tap to rate this tab
 
# A B C D E F G H I J K L M N O P Q R S T U V W X Y Z