Song name
# A B C D E F G H I J K L M N O P Q R S T U V W X Y Z

Buddy Holly - Its So Easy tab

Buddy Holly- It's So Easy

Corrections go to Adumbrecords@gmail.com

Intro (on low E)
|-0-2-4-|

Fill1                                        |-pm-|
|----5-8p7p5-0-000----------5--8--5----------------|
|-5-7----------555-777-9--7-5--8--5-76789-7-5-2222-|
|------------------777-9--7---------76789-7-5-2222-|
|--------------------------------------------------|
|--------------------------------------------------|
|--------------------------------------------------|

Solo
  D                                           
|/10-----------------------------12-----------|
|---10--12-10--10--12b-12b-12b-10--10-12b-12b-|
|-----11-----11--11---------------------------|
|---------------------------------------------|
|---------------------------------------------|
|---------------------------------------------|
  A
|----------14-12--------14b-14b-14b-14-12--------|
|-10-10-/14-----14-12-14-----------------14-12-10|
|------------------------------------------------|
|------------------------------------------------|
|------------------------------------------------|
|------------------------------------------------|
  D                                      B
|/10--------------------------------------------------------------------|
|---10--12b--12-10--10-12-10-12b-12-10---------10-----------------------|
|-----11----------11------------------11---8-11--11-9-------------------|
|----------------------------------------9------------------------------|
|------------------------------------------------------0h2-0h2-0h2-0h2--|
|---------------------------------------------------------0---0---0---0-|

Intro
A       E       D       E
It's so easy to fall in love,
A       D       E       A
It's so easy to fall in love

Fill1

A       E      D          E
People tell me love's for fools,
A         D           E          A
So here I go breaking all of the rules


A           D
It seems so easy, (seems so easy, seems so easy)
D                  A
Umm-hmm so doggone easy  (doggone easy , doggone easy)
A                    D
Umm-hmm, it seems so easy, (seems so easy, seems so easy, seems so easy)
D    B7                       E7
Well, your concerned that my heart has learned


A       E       D       E
It's so easy to fall in love,
A       D       E       A
It's so easy to fall in love

Fill1

Solo

(play Fill1 during this chorus)
A       E       D       E
It's so easy to fall in love,
A       D       E       A
It's so easy to fall in love

A      E       D         E
Look into your heart and see
A         D                 E             A
What your love book has [?] set apart for me

A           D
It seems so easy, (seems so easy, seems so easy)
D                  A
Umm-hmm so doggone easy  (doggone easy , doggone easy)
A                    D
Umm-hmm, it seems so easy, (seems so easy, seems so easy, seems so easy)
D    B7                       E7
Well, your concerned that my heart has learned


A       E       D       E
It's so easy to fall in love,
A       D       E       A
It's so easy to fall in love

Fill1

A           D
It seems so easy, (seems so easy, seems so easy)
D                  A
Umm-hmm so doggone easy  (doggone easy , doggone easy)
A                    D
Umm-hmm, it seems so easy, (seems so easy, seems so easy, seems so easy)
D    B7                       E7
Well, your concerned that my heart has learned

A       E       D       E
It's so easy to fall in love,
A       D       E       A
It's so easy to fall in love

end on A

thanks to T. Lindsey and Benjermin Reed because I'm too lazy to do the chords and lyrics
Tap to rate this tab
# A B C D E F G H I J K L M N O P Q R S T U V W X Y Z