Song name
# A B C D E F G H I J K L M N O P Q R S T U V W X Y Z

Buddy Holly - Thatll Be The Day tab

Buddy Holly - "That'll Be The Day"
Guitar Solo From 0:49 in song
Guitar Picking Tab
Tabbed By: Z. Esse
Play with a fast paced Blues Feel

e ---55--55----8--5-------------------------------8--5----------------------------------|
B ---55--55-----------8--5----6~888---6--5---------------8--5-------6~888---6---5-------|
G  ----------------------------7~999---7--5--------------------------7~999---7---5------|
D --------------------------------------------7--------------------------------------7--|
A --------------------------------------------------------------------------------------|
E --------------------------------------------------------------------------------------|


e----8--5----------------------------------------------8-~-9-----------8-~--9---------8-~-9-----|
B-----------8--5-----7~8---8---------7~8---8----------7-~-----8-------7-~------8-----7-~-----8--|
G --------------------8~9------9------8~9-------9------8---------------8--------------8---------|
D-----------------------------------------------------------------------------------------------|
A-----------------------------------------------------------------------------------------------|
E-----------------------------------------------------------------------------------------------|


e----8-~--9---------------------------------------------------------------------------------|
B----7-~-----8------------------------------------------------------------------------------|
G----8--------------------------------------------------------------------------------------|
D--------------------77---99---77---99---77---99---77---99----------------------------------|
A--------------------55---55---55---55---55---55---55---55---------------77---99---77---99--|
E--------------------55---55---55---55---55---55---55---55---------------55---55---55---55--|


e---------------------------------------------7--7---5-------7(B^v)-----5---------55---------|
B---------------------------------------------5--5---5-------8(B^v)-----5---------55---------|
G--------------------------------------------------------------------------------------5--7--|
D--------------------------------------------------------------------------------------------|
A-----77---99---77---9-----5-6-7-------------------------------------------------------------|
E-----55---55---55---5-----------------------------------------------------------------------|


e---4~5---5----------------------------------------------------0---0---------------|
B---4~5------5------------5-----------5------------------------5---5---------------|
G----------------------8----8-----7----7-----5--6--------------7---7---hold chord--|
D------------------------------------------------------7--------6---6--------------|
A---------------------------------------------------------------7---7--------------|
E ---------------------------------------------------------------0---0-------------|

B^v = bend up then bend down to normal      (~) = slide from prior fret # to next fret #
Tap to rate this tab
# A B C D E F G H I J K L M N O P Q R S T U V W X Y Z