Song name
# A B C D E F G H I J K L M N O P Q R S T U V W X Y Z

Buddy Miles - Them Changes tab

-----------------------------|
-----------------------------|
-----------------------------|
------5----------------------|
--7-7---7-5-------5----------|
------------7-7-7--7-5-0-0-0-|


-7---------------------------|
-7---------------------------|
-7---------------------------|
-6---------------------------|
-7----5--7--5----------------|
----7------------------------|
/ \
 |
 |
STRUM UP AND DOWN.



THATS IT IT REPEATS ITS SELF. FIRST TAB! WOOT WOOT.
Tap to rate this tab
# A B C D E F G H I J K L M N O P Q R S T U V W X Y Z