Song name
# A B C D E F G H I J K L M N O P Q R S T U V W X Y Z

Buddy Miles - Them Changes tab

-------------------------------------------------------------------------------
			     Them Changes - Buddy Miles
-------------------------------------------------------------------------------
Tabbed by: Logan Henderson (cruiser101)
Email:crumleylogan@yahoo.com

Tuning: Standard (EADGBE)
  *Main Riff
e|--------------------------------------------------------------------------|
B|--------------------------------------------------------------------------|
G|--------------------------------------------------------------------------|
D|-----------5-----------------0--------------------------------------------|
A|-------7-7---7-5-3--0-0--2-2---2-0----------------------------------------|
E|------------------------------------3--0--0-------------------------------|
  *Verse
E----7--x--7-7--x------------------------------------------|
B----9--x--9-9--x------------------------------------------|
G----9--x--9-9--x------------------------------------------|
D----9--x--9-9--x------------------------------------------|
A----7--x--7-7--x-------7h9--7-----------------------------|
E------------------7h9------------------------------------|


************************************

| /   slide up
| \   slide down
| h   hammer-on
| p   pull-off
| ~   vibrato
| +   harmonic
| x   Mute note
| b   Bend
| pb  Pre-bend
| br  Bend release
| pbr Pre-bend release
| brb Bend release bend

************************************

 Thanks for reading!
Tap to rate this tab
 
# A B C D E F G H I J K L M N O P Q R S T U V W X Y Z