Song name
# A B C D E F G H I J K L M N O P Q R S T U V W X Y Z

Budgie - Breadfan tab

----------------------------------------------------------------------------
			     BREADFAN - Budgie
----------------------------------------------------------------------------
Tabbed by:BOBTHEWEAZEL
Email:captain-jesus@hotmail.com

Tuning:1/2 Step Down (Perhaps Just Flat Of That)


NOTE: The Other Versions Are Wrong

NOTE: Solo Coming Soon

NOTE: Their Lead Singer, Burke Shelley, Is Indeed A Man

NOTE: Lyrics Do Not Correspond Exactly To Notes, Times Are Approximate

NOTE: During The Acoustic Verse, Bourge Occasionally Brings His Pinky
       Down Turning The G#Major Into A G#7 (Figure Below). It's Fairly
       Random And Isn't Necessary So I Didn't Tab It. Just Know That It
       Happens Cause You May Hear It And You May Want To Play It.

       |-0-|      |-3-|
       |-2-|      |-2-|
       |-2-| Into |-2-|
       |-2-|      |-2-|
       |-0-|      |-0-|
       |---|      |---|         


INTRO

00:00-00:55
d#|-------------------------------------------------------------|
A#|-------------------------------------------------------------|
F#|-------------------------------------------------------------|
C#|-5h7-7-5h7-7-5h7-7-5h7-7-5h7-7-7-5h7-7-5h7-7-7-7-7p5---------|
G#|-----------------------------------------------------7\5-3-0-|
D#|-------------------------------------------------------------|


VERSE #1

  Breadfan, Open Up Your...
00:56
d#|-----------------------------------------------------------------|
A#|-----------------------------------------------------------------|
F#|-----------------------------------------------------------------|
C#|-5h7-7-7-7--7-7--7-7-7-7-7--7-7--7-7-7-7-7--7-7--7-7-7-7-7-7-7p5-|
G#|-----------------------------------------------------------------|
D#|-----------------------------------------------------------------|

  Lose It
01:00
d#|---------------|
A#|---------------|
F#|---------------|
C#|-5-5-5-5-5-6-7-|
G#|-5-5-5-5-5-6-7-|
D#|-3-3-3-3-3-4-5-|

  Breadfan, Take It All...
01:03
d#|-----------------------------------------------------------------|
A#|-----------------------------------------------------------------|
F#|-----------------------------------------------------------------|
C#|-5h7-7-7-7--7-7--7-7-7-7-7--7-7--7-7-7-7-7--7-7--7-7-7-7-7-7-7p5-|
G#|-----------------------------------------------------------------|
D#|-----------------------------------------------------------------|

  Million
01:07
d#|---------------|
A#|---------------|
F#|---------------|
C#|-5-5-5-5-5-6-7-|
G#|-5-5-5-5-5-6-7-|
D#|-3-3-3-3-3-4-5-|

  Breadfan, You've Got It...
01:10
d#|-----------------------------------------------------------------|
A#|-----------------------------------------------------------------|
F#|-----------------------------------------------------------------|
C#|-5h7-7-7-7--7-7--7-7-7-7-7--7-7--7-7-7-7-7--7-7--7-7-7-7-7-7-7p5-|
G#|-----------------------------------------------------------------|
D#|-----------------------------------------------------------------|

  Fool
01:14
d#|---------------|
A#|---------------|
F#|---------------|
C#|-5-5-5-5-5-6-7-|
G#|-5-5-5-5-5-6-7-|
D#|-3-3-3-3-3-4-5-|

  Seagull, Give It All...
01:17
d#|-----------------------------------------------------------------|
A#|-----------------------------------------------------------------|
F#|-----------------------------------------------------------------|
C#|-5h7-7-7-7--7-7--7-7-7-7-7--7-7--7-7-7-7-7--7-7--7-7-7-7-7-7-7p5-|
G#|-----------------------------------------------------------------|
D#|-----------------------------------------------------------------|

  Be
01:21
d#|---------------|
A#|---------------|
F#|---------------|
C#|-5-5-5-5-5-6-7-|
G#|-5-5-5-5-5-6-7-|
D#|-3-3-3-3-3-4-5-|


BRIDGE #1

01:23
d#|-------------------------------------------------------------|
A#|-------------------------------------------------------------|
F#|-------------------------------------------------------------|
C#|-5h7-7-5h7-7-5h7-7-5h7-7-5h7-7-7-5h7-7-5h7-7-7-7-7p5---------|
G#|-----------------------------------------------------7\5-3-0-|
D#|-------------------------------------------------------------|

01:28
d#|-------------------------------------------------------------|
A#|-------------------------------------------------------------|
F#|-------------------------------------------------------------|
C#|-5h7-7-5h7-7-5h7-7-5h7-7-5h7-7-7-5h7-7-5h7-7-7-7-7p5---------|
G#|-----------------------------------------------------7\5-3-0-|
D#|-------------------------------------------------------------|


VERSE #2

  Loser, Give It All...
01:32
d#|-----------------------------------------------------------------|
A#|-----------------------------------------------------------------|
F#|-----------------------------------------------------------------|
C#|-5h7-7-7-7--7-7--7-7-7-7-7--7-7--7-7-7-7-7--7-7--7-7-7-7-7-7-7p5-|
G#|-----------------------------------------------------------------|
D#|-----------------------------------------------------------------|

  Money
01:37
d#|---------------|
A#|---------------|
F#|---------------|
C#|-5-5-5-5-5-6-7-|
G#|-5-5-5-5-5-6-7-|
D#|-3-3-3-3-3-4-5-|

  Sailor, Roughin' Up...
01:40  
d#|-----------------------------------------------------------------|
A#|-----------------------------------------------------------------|
F#|-----------------------------------------------------------------|
C#|-5h7-7-7-7--7-7--7-7-7-7-7--7-7--7-7-7-7-7--7-7--7-7-7-7-7-7-7p5-|
G#|-----------------------------------------------------------------|
D#|-----------------------------------------------------------------|

  Bad Boy  
01:44
d#|---------------|
A#|---------------|
F#|---------------|
C#|-5-5-5-5-5-6-7-|
G#|-5-5-5-5-5-6-7-|
D#|-3-3-3-3-3-4-5-|

  Breadfan, Finger In The...
01:47
d#|-----------------------------------------------------------------|
A#|-----------------------------------------------------------------|
F#|-----------------------------------------------------------------|
C#|-5h7-7-7-7--7-7--7-7-7-7-7--7-7--7-7-7-7-7--7-7--7-7-7-7-7-7-7p5-|
G#|-----------------------------------------------------------------|
D#|-----------------------------------------------------------------|

  Gee  
01:51
d#|---------------|
A#|---------------|
F#|---------------|
C#|-5-5-5-5-5-6-7-|
G#|-5-5-5-5-5-6-7-|
D#|-3-3-3-3-3-4-5-|

  Come On, Keep It On... 
01:53
d#|-----------------------------------------------------------------|
A#|-----------------------------------------------------------------|
F#|-----------------------------------------------------------------|
C#|-5h7-7-7-7--7-7--7-7-7-7-7--7-7--7-7-7-7-7--7-7--7-7-7-7-7-7-7p5-|
G#|-----------------------------------------------------------------|
D#|-----------------------------------------------------------------|

  Island
01:58
d#|---------------|
A#|---------------|
F#|---------------|
C#|-5-5-5-5-5-6-7-|
G#|-5-5-5-5-5-6-7-|
D#|-3-3-3-3-3-4-5-|


SOLO

02:00-02:54
d#|-------------|
A#|-------------|
F#|-COMING-SOON-|
C#|-------------|
G#|-------------|
D#|-------------|


ACOUSTIC VERSE (See Note Above)

02:55
d#|-5--------5--3--------3--5--------5--3--------3-|
A#|-5--------5--3--------3--5--------5--3--------3-|
F#|-5--------5--3--------3--5--------5--3--------3-|
C#|-7--------7--5--------5--7--------7--5--------5-|
G#|-7--------7--5--------5--7--------7--5--------5-|
D#|-5--------5--3--------3--5--------5--3--------3-|
   [    s     ][    s     ][    s     ][    s     ]

  Loser, Give It All...
03:09
d#|-5--------5--3--------3--5--------5--3--------3-|
A#|-5--------5--3--------3--5--------5--3--------3-|
F#|-5--------5--3--------3--5--------5--3--------3-|
C#|-7--------7--5--------5--7--------7--5--------5-|
G#|-7--------7--5--------5--7--------7--5--------5-|
D#|-5--------5--3--------3--5--------5--3--------3-|
   [    s     ][    s     ][    s     ][    s     ]

  Cause I, Don't Need...
03:21   03:25     03:28     03:32
d#|-0---0-----0---0-----0---0-----|
A#|-2---2-----2---2-----2---2-----|
F#|-2---2-----2---2-----2---2-----|
C#|-2---2-----2---2-----2---2-----|
G#|-0---0-1-0-0---0-1-0-0---0-1-0-|
D#|-------------------------------|
   [  s  ]   [  s  ]   [  s  ]

  Don't You Feel It...
03:33
d#|-5--------5--3--------3--5--------5--3--------3-|
A#|-5--------5--3--------3--5--------5--3--------3-|
F#|-5--------5--3--------3--5--------5--3--------3-|
C#|-7--------7--5--------5--7--------7--5--------5-|
G#|-7--------7--5--------5--7--------7--5--------5-|
D#|-5--------5--3--------3--5--------5--3--------3-|
   [    s     ][    s     ][    s     ][    s     ]

  And I Don't Need...
03:45
d#|-0---0-----0---0-----0---0-----|
A#|-2---2-----2---2-----2---2-----|
F#|-2---2-----2---2-----2---2-----|
C#|-2---2-----2---2-----2---2-----|
G#|-0---0-1-0-0---0-1-0-0---0-1-0-|
D#|-------------------------------|
   [  s  ]   [  s  ]   [  s  ]

03:56
d#|-0---0-----0---0-----0---0-----|
A#|-2---2-----2---2-----2---2-----|
F#|-2---2-----2---2-----2---2-----|
C#|-2---2-----2---2-----2---2-----|
G#|-0---0-1-0-0---0-1-0-0---0-1-0-|
D#|-------------------------------|
   [  s  ]   [  s  ]   [  s  ]

04:06
d#|-0---0-----0---0-----0---0-----0---0-----|
A#|-2---2-----2---2-----2---2-----2---2-----|
F#|-2---2-----2---2-----2---2-----2---2-----|
C#|-2---2-----2---2-----2---2-----2---2-----|
G#|-0---0-1-0-0---0-1-0-0---0-1-0-0---0-1-0-|
D#|-----------------------------------------|
   [  s  ]   [  s  ]   [  s  ]   [  s  ]

04:18                              [Distortion On]
d#|---------------------------------------------|
A#|---------------------------------------------|
F#|---------------------------------------------|
C#|---------------------------------7-5-7-5-7-5-|
G#|-0-0-0-0-0-0-0-0-0-0-0-0-0-0-0-0-7-5-7-5-7-5-|
D#|---------------------------------5-3-5-3-5-3-|


BRIDGE #2

04:23
d#|-------------------------------------------------------------|
A#|-------------------------------------------------------------|
F#|-------------------------------------------------------------|
C#|-5h7-7-5h7-7-5h7-7-5h7-7-5h7-7-7-5h7-7-5h7-7-7-7-7p5---------|
G#|-----------------------------------------------------7\5-3-0-|
D#|-------------------------------------------------------------|

04:28
d#|-------------------------------------------------------------|
A#|-------------------------------------------------------------|
F#|-------------------------------------------------------------|
C#|-5h7-7-5h7-7-5h7-7-5h7-7-5h7-7-7-5h7-7-5h7-7-7-7-7p5---------|
G#|-----------------------------------------------------7\5-3-0-|
D#|-------------------------------------------------------------|


VERSE #3

  Breadfan, Open Up Your...
04:32
d#|-----------------------------------------------------------------|
A#|-----------------------------------------------------------------|
F#|-----------------------------------------------------------------|
C#|-5h7-7-7-7--7-7--7-7-7-7-7--7-7--7-7-7-7-7--7-7--7-7-7-7-7-7-7p5-|
G#|-----------------------------------------------------------------|
D#|-----------------------------------------------------------------|

  Lose It
04:37
d#|---------------|
A#|---------------|
F#|---------------|
C#|-5-5-5-5-5-6-7-|
G#|-5-5-5-5-5-6-7-|
D#|-3-3-3-3-3-4-5-|

 Breadfan, Take It All...
04:39
d#|-----------------------------------------------------------------|
A#|-----------------------------------------------------------------|
F#|-----------------------------------------------------------------|
C#|-5h7-7-7-7--7-7--7-7-7-7-7--7-7--7-7-7-7-7--7-7--7-7-7-7-7-7-7p5-|
G#|-----------------------------------------------------------------|
D#|-----------------------------------------------------------------|

  Million
04:44
d#|---------------|
A#|---------------|
F#|---------------|
C#|-5-5-5-5-5-6-7-|
G#|-5-5-5-5-5-6-7-|
D#|-3-3-3-3-3-4-5-|

  Breadfan, You've Got It...
04:47
d#|-----------------------------------------------------------------|
A#|-----------------------------------------------------------------|
F#|-----------------------------------------------------------------|
C#|-5h7-7-7-7--7-7--7-7-7-7-7--7-7--7-7-7-7-7--7-7--7-7-7-7-7-7-7p5-|
G#|-----------------------------------------------------------------|
D#|-----------------------------------------------------------------|

  Fool
04:51
d#|---------------|
A#|---------------|
F#|---------------|
C#|-5-5-5-5-5-6-7-|
G#|-5-5-5-5-5-6-7-|
D#|-3-3-3-3-3-4-5-|

  Seagull, Give It All...
04:54
d#|-----------------------------------------------------------------|
A#|-----------------------------------------------------------------|
F#|-----------------------------------------------------------------|
C#|-5h7-7-7-7--7-7--7-7-7-7-7--7-7--7-7-7-7-7--7-7--7-7-7-7-7-7-7p5-|
G#|-----------------------------------------------------------------|
D#|-----------------------------------------------------------------|

  Be
04:58
d#|---------------|
A#|---------------|
F#|---------------|
C#|-5-5-5-5-5-6-7-|
G#|-5-5-5-5-5-6-7-|
D#|-3-3-3-3-3-4-5-|


BRIDGE #3

05:00
d#|-------------------------------------------------------------|
A#|-------------------------------------------------------------|
F#|-------------------------------------------------------------|
C#|-5h7-7-5h7-7-5h7-7-5h7-7-5h7-7-7-5h7-7-5h7-7-7-7-7p5---------|
G#|-----------------------------------------------------7\5-3-0-|
D#|-------------------------------------------------------------|

05:05
d#|-------------------------------------------------------------|
A#|-------------------------------------------------------------|
F#|-------------------------------------------------------------|
C#|-5h7-7-5h7-7-5h7-7-5h7-7-5h7-7-7-5h7-7-5h7-7-7-7-7p5---------|
G#|-----------------------------------------------------7\5-3-0-|
D#|-------------------------------------------------------------|


VERSE #4

 Loser, Give It All...
05:10
d#|-----------------------------------------------------------------|
A#|-----------------------------------------------------------------|
F#|-----------------------------------------------------------------|
C#|-5h7-7-7-7--7-7--7-7-7-7-7--7-7--7-7-7-7-7--7-7--7-7-7-7-7-7-7p5-|
G#|-----------------------------------------------------------------|
D#|-----------------------------------------------------------------|

  Money
05:14
d#|---------------|
A#|---------------|
F#|---------------|
C#|-5-5-5-5-5-6-7-|
G#|-5-5-5-5-5-6-7-|
D#|-3-3-3-3-3-4-5-|

  Sailor, Roughin' Up...
05:17  
d#|-----------------------------------------------------------------|
A#|-----------------------------------------------------------------|
F#|-----------------------------------------------------------------|
C#|-5h7-7-7-7--7-7--7-7-7-7-7--7-7--7-7-7-7-7--7-7--7-7-7-7-7-7-7p5-|
G#|-----------------------------------------------------------------|
D#|-----------------------------------------------------------------|

  Van  
05:21
d#|---------------|
A#|---------------|
F#|---------------|
C#|-5-5-5-5-5-6-7-|
G#|-5-5-5-5-5-6-7-|
D#|-3-3-3-3-3-4-5-|

  Breadfan, Finger In The...
05:24
d#|-----------------------------------------------------------------|
A#|-----------------------------------------------------------------|
F#|-----------------------------------------------------------------|
C#|-5h7-7-7-7--7-7--7-7-7-7-7--7-7--7-7-7-7-7--7-7--7-7-7-7-7-7-7p5-|
G#|-----------------------------------------------------------------|
D#|-----------------------------------------------------------------|

  Gee  
05:28
d#|---------------|
A#|---------------|
F#|---------------|
C#|-5-5-5-5-5-6-7-|
G#|-5-5-5-5-5-6-7-|
D#|-3-3-3-3-3-4-5-|

  Come On, Keep It On... 
05:30
d#|-----------------------------------------------------------------|
A#|-----------------------------------------------------------------|
F#|-----------------------------------------------------------------|
C#|-5h7-7-7-7--7-7--7-7-7-7-7--7-7--7-7-7-7-7--7-7--7-7-7-7-7-7-7p5-|
G#|-----------------------------------------------------------------|
D#|-----------------------------------------------------------------|

  Island
05:35
d#|---------------|
A#|---------------|
F#|---------------|
C#|-5-5-5-5-5-6-7-|
G#|-5-5-5-5-5-6-7-|
D#|-3-3-3-3-3-4-5-|


Extro

05:38
d#|-------------------------------------------------------------|
A#|-------------------------------------------------------------|
F#|-------------------------------------------------------------|
C#|-5h7-7-5h7-7-5h7-7-5h7-7-5h7-7-7-5h7-7-5h7-7-7-7-7p5---------|
G#|-----------------------------------------------------7\5-3-0-|
D#|-------------------------------------------------------------|

05:42
d#|-------------------------------------------------------------|
A#|-------------------------------------------------------------|
F#|-------------------------------------------------------------|
C#|-5h7-7-5h7-7-5h7-7-5h7-7-5h7-7-7-5h7-7-5h7-7-7-7-7p5---------|
G#|-----------------------------------------------------7\5-3-0-|
D#|-------------------------------------------------------------|

05:47
d#|-------------------------------------------------------------|
A#|-------------------------------------------------------------|
F#|-------------------------------------------------------------|
C#|-5h7-7-5h7-7-5h7-7-5h7-7-5h7-7-7-5h7-7-5h7-7-7-7-7p5---------|
G#|-----------------------------------------------------7\5-3-0-|
D#|-------------------------------------------------------------|

05:52
d#|-------------------------------------------------------------|
A#|-------------------------------------------------------------|
F#|-------------------------------------------------------------|
C#|-5h7-7-5h7-7-5h7-7-5h7-7-5h7-7-7-5h7-7-5h7-7-7-7-7p5---------|
G#|-----------------------------------------------------7\5-3-0-|
D#|-------------------------------------------------------------|

05:56
d#|-----------|
A#|-----------|
F#|-----------|
C#|-7~~~~~~7\-|
G#|-7~~~~~~7\-|
D#|-5~~~~~~5\-|


************************************

| b  Bend To (Push String Up Or Down Within Same Fret To Desired Note)
| r  Release To (Let String Play From A Bent Position To An Unbent Position)
| /  Slide Up (Slide From Current Note To Next Note Or Toward Guitar Body)
| \  Slide Down (Slide From Current Note To Next Note Or Toward Guitar Head)
| h  Hammer-On (Press A Finger Down Quick And Hard To Achieve Next Note)
| p  Pull-Off (Pull Off And Slightly Down To Let Next Note Ring)
| ~  Hold Note (Let Current Note Ring, Vibrato Might Be Assumed)
| +  Harmonic (Lightly Touch String Over A Sweet Spot And Pluck)
| x  Rhythmic Chuck Note (Touch Strings, Dont Push To Board, Strum)
| v  Vibrato (Bend String Up And Down Rapidly, Very Slight Bends)
| s  Strum  (Strum Some # Of Times As You See Fit)

************************************
Tap to rate this tab
 
# A B C D E F G H I J K L M N O P Q R S T U V W X Y Z