Budgie - Napoleon Bona Part 1 tab

---0--0-----0--0-----0--0----0--0-----------------|
--0--0-----0--0-----0--0----0--0------------------|
----0---0----0---0----0---0---0---0---------------|
-2-----2--1-----1--0-----0------------------------|
---------------------------4-----4----------------|
--------------------------------------------------|

---0--0-----0--0-----0--0----0--0--0--0--0--------|
--0--0-----0--0-----0--0----0--0--0--0--0---------|
----0---0----0---0----0---0-----------------------|
-2-----2--1-----1--0-----0------------------------|
---------------------------4----------------------|
------------------------------5--3--2--1----------|

---0--0-----0--0-----0--0----0--0-----------------|
--0--0-----0--0-----0--0----0--0------------------|
----5---5----5---5----5---5---5---5---------------|
-7-----7--6-----6--5-----5-4-----4----------------|
--------------------------------------------------|
--------------------------------------------------|

---0--0-----0--0-----0--0----0--0--0--0-----------|
--0--0-----0--0-----0--0----0--0--0--0------------|
----5---5----5---5----5---5-----------------------|
-7-----7--6-----6--5-----5-4----------------------|
------------------------------5--3--2-------------|
--------------------------------------------------|
Tap to rate this tab
 
# A B C D E F G H I J K L M N O P Q R S T U V W X Y Z