Guitaretab - guitar tabs
Song name
# A B C D E F G H I J K L M N O P Q R S T U V W X Y Z

Budgie - Wondering What Everyone Knows tab

Wondering what everyone knows
Budgie

The fourth track off of the in for the kill album. I did it because I found very
few budgie tabs around and its a shame because theyre a great band. This is the
first song I've tabbed, so let me know how
good it is. (Im 95% certain its correct)

Chris Wood

1)
e  --0-0-0-0-0-0--0-0-0-0-0-0--0-0-0-0-0-0---|
B --0-0-0-0-0-0--1-1-1-1-1-1--0-0-0-0-0-0----|
G --0-0-0-0-0-0--2-2-2-2-2-2--0-0-0-0-0-0----|
D --2-2-2-2-2-2--2-2-2-2-2-2--2-2-2-2-2-2----|
A --2-2-2-2-2-2--0-0-0-0-0-0--2-2-2-2-2-2----|
E --0-0-0-0-0-0--X-X-X-X-X--0-0-0-0-0-0------|

Chorus)
e  --0-0-0-0-0-0-----0-0-0-0-0-0--0-0-0-0-0-0----0-0-0-0-0-0--0-0-0-0-0-0--|
B --1-1-1-1-1-1-----0-0-0-0-0-0--1-1-1-1-1-1-----0-0-0-0-0-0--1-1-1-1-1-1--|
G --2-2-2-2-2-2-----0-0-0-0-0-0--2-2-2-2-2-2-----0-0-0-0-0-0--2-2-2-2-2-2--|
D --2-2-2-2-2-2-----2-2-2-2-2-2--2-2-2-2-2-2-----2-2-2-2-2-2--2-2-2-2-2-2--|
A --0-0-0-0-0-0-----2-2-2-2-2-2--0-0-0-0-0-0-----2-2-2-2-2-2--2-2-2-2-2-2--|
E--X-X-X-X-X-X---0-0-0-0-0-0-X-X-X-X-X-X-----0-0-0-0-0-0--X-X-X-X-X-X------|

e  --2--0-0-0-0-0-0---|
B --3--0-0-0-0-0-0----|
G --2--0-0-0-0-0-0----|
D --0--2-2-2-2-2-2----|
A --X--2-2-2-2-2-2----|
E --X--0-0-0-0-0-0----|

2)
(same as 1but with final strum x3)

e  --0-0-0-0-0-0--0-0-0-0-0-0--0-0-0-0-0-0--0-0-0-0-0-0--0-0-0-0-0-0--0--|
B --0-0-0-0-0-0--1-1-1-1-1-1--0-0-0-0-0-0--0-0-0-0-0-0--0-0-0-0-0-0--0---|
G --0-0-0-0-0-0--2-2-2-2-2-2--0-0-0-0-0-0--0-0-0-0-0-0--0-0-0-0-0-0--0---|
D --2-2-2-2-2-2--2-2-2-2-2-2--2-2-2-2-2-2--2-2-2-2-2-2--2-2-2-2-2-2--2---|
A --2-2-2-2-2-2--0-0-0-0-0-0--2-2-2-2-2-2--2-2-2-2-2-2--2-2-2-2-2-2--2---|
E --0-0-0-0-0-0--X-X-X-X-X--0-0-0-0-0-0--0-0-0-0-0-0--0-0-0-0-0-0--0-----|

e  --0-0-0-0-0---|
B --0-0-0-0-0----|
G --0-0-0-0-0----|
D --2-2-2-2-2----|
A --2-2-2-2-2----|
E --0-0-0-0-0----|

Interlude)
[ Tab from: http://www.guitaretab.com/b/budgie/68260.html ]
e --3-3-3-3-3-3--2--0-0-0-0-0-0----0-0-0-0-0-0----3-3-3-3-3-3----2--0-0-0-0-0-0--0-0-0-0-0-0--2--|
B --0-0-0-0-0-0--3--1-1-1-1-1-1----1-1-1-1-1-1----0-0-0-0-0-0----3--1-1-1-1-1-1--1-1-1-1-1-1--3--|
G --0-0-0-0-0-0--2--0-0-0-0-0-0----2-2-2-2-2-2----0-0-0-0-0-0----2--0-0-0-0-0-0--2-2-2-2-2-2--2--|
D --0-0-0-0-0-0--0--2-2-2-2-2-2----2-2-2-2-2-2----0-0-0-0-0-0----0--2-2-2-2-2-2--2-2-2-2-2-2--0--|
A --2-2-2-2-2-2--X--3-3-3-3-3-3----0-0-0-0-0-0----2-2-2-2-2-2----X--3-3-3-3-3-3--0-0-0-0-0-0-X---|
E --3-3-3-3-3-3--X--X-X-X-X-X-X--X-X-X-X-X-X3-3-3-3-3-3X-X-X-X-X-X---X-X-X-X-X-X-X-------------|

3)
(same as Chorus but with final strum 3x again)

e  --0-0-0-0-0-0-----0-0-0-0-0-0--0-0-0-0-0-0----0-0-0-0-0-0--0-0-0-0-0-0--|
B --1-1-1-1-1-1-----0-0-0-0-0-0--1-1-1-1-1-1-----0-0-0-0-0-0--1-1-1-1-1-1--|
G --2-2-2-2-2-2-----0-0-0-0-0-0--2-2-2-2-2-2-----0-0-0-0-0-0--2-2-2-2-2-2--|
D --2-2-2-2-2-2-----2-2-2-2-2-2--2-2-2-2-2-2-----2-2-2-2-2-2--2-2-2-2-2-2--|
A --0-0-0-0-0-0-----2-2-2-2-2-2--0-0-0-0-0-0-----2-2-2-2-2-2--2-2-2-2-2-2--|
E--X-X-X-X-X-X---0-0-0-0-0-0-X-X-X-X-X-X-----0-0-0-0-0-0--X-X-X-X-X-X------|

e  --2--0-0-0-0-0-0--0-0-0-0-0-0--0-0-0-0-0-0--0-0-0-0-0-0---|
B --3--0-0-0-0-0-0--0-0-0-0-0-0--0-0-0-0-0-0--0-0-0-0-0-0----|
G --2--0-0-0-0-0-0--0-0-0-0-0-0--0-0-0-0-0-0--0-0-0-0-0-0----|
D --0--2-2-2-2-2-2--2-2-2-2-2-2--2-2-2-2-2-2--2-2-2-2-2-2----|
A --X--2-2-2-2-2-2--2-2-2-2-2-2--2-2-2-2-2-2--2-2-2-2-2-2----|
E --X--0-0-0-0-0-0--0-0-0-0-0-0--0-0-0-0-0-0--0-0-0-0-0-0----|

Interlude)


e --3-3-3-3-3-3--2--0-0-0-0-0-0----0-0-0-0-0-0----3-3-3-3-3-3----2--0-0-0-0-0-0--0-0-0-0-0-0--2--|
B --0-0-0-0-0-0--3--1-1-1-1-1-1----1-1-1-1-1-1----0-0-0-0-0-0----3--1-1-1-1-1-1--1-1-1-1-1-1--3--|
G --0-0-0-0-0-0--2--0-0-0-0-0-0----2-2-2-2-2-2----0-0-0-0-0-0----2--0-0-0-0-0-0--2-2-2-2-2-2--2--|
D --0-0-0-0-0-0--0--2-2-2-2-2-2----2-2-2-2-2-2----0-0-0-0-0-0----0--2-2-2-2-2-2--2-2-2-2-2-2--0--|
A --2-2-2-2-2-2--X--3-3-3-3-3-3----0-0-0-0-0-0----2-2-2-2-2-2----X--3-3-3-3-3-3--0-0-0-0-0-0-X---|
E --3-3-3-3-3-3--X--X-X-X-X-X-X--X-X-X-X-X-X3-3-3-3-3-3X-X-X-X-X-X---X-X-X-X-X-X-X-------------|
Related for Wondering What Everyone Knows tab