Guitaretab - guitar tabs
Song name
# A B C D E F G H I J K L M N O P Q R S T U V W X Y Z

Budgie - Panzer Division Distroyed tab

-------------------------------------------------------------------------------
			     Panzer Division Destroyed- Budgie
-------------------------------------------------------------------------------
Tabbed by M.Budgie.s
Email: ilovepriest59@hotmail.com

Tuning: normal
Main riff
e|----------------------------------------------------------------------------|
B|----------------------------------------------------------------------------|
G|----------------------------------------------------------------------------|
D|-----------------------------------------------------------5----------------|
A|----------5h7----------5h7------------5h7--------5------7-------------------|
E|0--00----------0--00---------0--00---------5h7---7--------------------------|
Verse
( Here me call )  pan-zer div-ision  destroyed
e|----------------------------------------------------------------------------|
B|----------------------------------------------------------------------------|
G|-9--------------------------------------------------------------------------|
D|-9--------------------9---5---6---7------9-\-\-\-\-\------------------------|
A|-7--------------------7---3---4---5------7-\-\-\-\-\------------------------|
E|----------------------------------------------------------------------------|
Then back to the main riff
Crushing men   all living men have gone
e|----------------------------------------------------------------------------|
B|----------------------------------------------------------------------------|
G|----------------------------------------------------------------------------|
D|--5----------------5----6----7----------------------------------------------|
A|--3----------------3----4----5----------------------------------------------|
E|----------------------------------------------------------------------------|
back to the main riff
ooooooooooohhhhhhh
e|------------------------------------------------------------------------------|
B|------------------------------------------------bend -------------------------|
G|------------------------------------------------^-^---------------------------|
D|--5-5-5-5-5-5-5-5-5-5-------5--3---5---5-5------------------------------------|
A|--3-3-3-3-3-3-3-3-3-3---------------------------------------------------------|
E|------------------------------------------------------------------------------|

Bridge
e|----------------------------------------------------------------------------|
B|----------------------------------------------------------------------------|
G|----------------------------------------------------------------------------|
D|-----5------------5--7------pick scrape-------------------------------------|
A|-----3------------3--5------------------------------------------------------|
E|----------------------------------------------------------------------------|
The bass playing the main riff
[ Tab from: http://www.guitaretab.com/b/budgie/69128.html ]
e|----------------------------------------------------------------------------|
B|----------------------------------------------------------------------------|
G|----------------------------------------------------------------------------|
D|----------------------------------------------------------------------------|
A|---7------------5--7----9-----------10--9---7-------------------------------|
E|----------------------------------------------------------------------------|
These are unison bends
e|---12-----------10-----12---14--------15--14--12-----------------------------|
B|---15-----------13----15----17--------18--17--15-----------------------------|
G|-----------------------------------------------------------------------------|
D|-----------------------------------------------------------------------------|
A|-----------------------------------------------------------------------------|
E|-----------------------------------------------------------------------------|
I havenít worked out the solo but after the solo it goes
e|---12-----------10-----12---14--------15--14--12-----------------------------|
B|---15-----------13----15----17--------18--17--15-----------------------------|
G|-----------------------------------------------------------------------------|
D|-----------------------------------------------------------------------------|
A|-----------------------------------------------------------------------------|
E|-----------------------------------------------------------------------------|
Then back to this
e|----------------------------------------------------------------------------|
B|----------------------------------------------------------------------------|
G|----------------------------------------------------------------------------|
D|-----5------------5--7------pick scrape-------------------------------------|
A|-----3------------3--5------------------------------------------------------|
E|----------------------------------------------------------------------------|
The bass playing the main riff


e|-----------------------------------------------------------------------------|
B|-----------------------------------------------------------------------------|
G|-----------------------------------------------------------------------------|
D|-----------------------------------------------------------------------------|
A|------9-9---- 7-7---5-5----4-4-----------------------------------------------|
E|-----7-7-----5-5----3-3----2-2-----------------------------------------------|
Then you basically repeat the above, after the unison bends and the riff after that it goes
e|--------------------------------------------------------------------------|
B|--------------------------------------------------------------------------|
G|--------------------------------------------------------------------------|
D|-----5------------5--7------7-----2-------9-9-9-7---------2------9-9-9-7--|
A|-----3------------3--5------5-----2-------7-7-7-5---------2------7-7-7-5--|
E|-------------------------------------0-------------------------0----------|

e|----------------------------------------------------------------------------|
B|----------------------------------------------------------------------------|
G|----------------------------------------------------------------------------|
D|----------------------------------------------------------------------------|
A|------9-9---- 7-7---5-5----4-4----------------------------------------------|
E|-----7-7-----5-5----3-3----2-2----------------------------------------------|

e|---------------------------------------------------------------------------|
B|---------------------------------------------------------------------------|
G|---------------------------------------------------------------------------|
D|------2---------------9-- 9--9---------------------------------------------|
A|------2---------------7--7--7----------------------------------------------|
E|------0--------------------------------------------------------------------|

Hope you enjoyed it, this was my first tab ever, also if you want more budgie tabs 
me for whichever one u want because Iíve worked out lots more.

| /  slide up
| \  slide down
| h  hammer-on
| p  pull-off
| ~  vibrato
| +  harmonic
| x  Mute note
===============================================================================
Related for Panzer Division Distroyed tab