Guitaretab - guitar tabs
Song name
# A B C D E F G H I J K L M N O P Q R S T U V W X Y Z

Budgie - Time To Remember tab

-------------------------------------------------------------------------------
			     Time to Remember - Budgie
-------------------------------------------------------------------------------
Tabbed by: M.budgie.S
Email: ilovepriest59@hotmail.com
i hope nige, ru, mark and callum

Tuning: normal
Intro riff

e|-----------------------------------------------------------------------------|
B|-----------------------------------------------------------------------------|
G|-------------------------0-----------------------------0---------------------|
D|--------------------4-----------------------------4--------------------------|
A|-----3--/--5---5------------------5-/-3----3---------------------------------|
E|-----3--/--5-----------------------5-/-3-------------------------------------|
      Slide up
e|---12---------7----------------------------12--------------------------------|
B|-------------------------7--------------------------------7------------------|
G|--------------------------------------------------------------------7--------|
D|-----------------------------------------------------------------------------|
A|-----------------------------------------------------------------------------|
E|-----------------------------------------------------------------------------|
Pitch harmonics
e|-----------------------------------------------------------------------------|
B|-----------------------------------------------------------------------------|
G|-----------------------------------------------------------------------------|
D|------------------------------------9-9-9-7-9------9-------------------------|
A|----3-2-3-2----------------------7-7-7-5-7-------7---------------------------|
E|-----------------3-2-3-2-----------------------------------------------------|
Chorus
e|----------------------------------------------------------------------14x---14---x---14/////--|
B|----------------------------------------------------------------------14x---14---x---14/////--|
G|----------------------------------------------------------------------14x14---x---14/////----|
D|---9--9----7----5---------------------------------------------------12x12x---12/////--------|
A|---7---7--/-5--/-3--------5---------------5--7--5----------------------------------------------|
E|----------------------------3-------5\7-----------------7--------------------------------------|

[ Tab from: http://www.guitaretab.com/b/budgie/69968.html ]
e|-----------------------------------------------------------15-----------1515---15----|
B|------------------------12----15-----------15--12-----full----------full---fullfull--|
G|--14------14--12-----------full-------------------------------------------------------|
D|--full------------------------bend----------------------------------------------------|
A|-bend---------------------------------------------------------------------------------|
E|--------------------------------------------------------------------------------------|
solo
e|-12--------------------------------------------------------------------------|
B|--------15----------12-------------------------------------------------------|
G|--------full----------------14---12------------------------------------------|
D|-------bend---------------------------14-------------------------------------|
A|-------------------------------------half bend-------------------------------|
E|-----------------------------------------------------------------------------|

e|---17----15----------------------------------------------------------------------------------|
B|--full------------17-----17--15--------------------------------------------------------------|
G|------------------------------------17----17--15---------------------------------------------|
D|-------------------------------------------------------17--17---15---------------------------|
A|---------------------------------------------------------------------------17----------------|
E|------------------------------------------------------------------------------------18---15--|

e|--22-22-22-22-19-19-19-19-17-17-17-17-15-15-15-15-12-12-12-12-----------------------------------------|
B|-----------------------------------------------------------------------------------------15-15-15-15--|
G|------------------------------------------------------------------------------------------------------|
D|------------------------------------------------------------------------------------------------------|
A|------------------------------------------------------------------------------------------------------|
E|------------------------------------------------------------------------------------------------------|

e|---------------------------------------------------------------------------------------------------------------------|
B|--12-12-12-12--------------------------------------------------------------------------------------------------------|
G|-------------------14-14-14-14-12-12-12-12---------------------------------------------------------------------------|
D|------------------------------------------------------14-14-14-14-12-12----------------------------------------------|
A|---------------------------------------------------------------------------------14-14-12-12-------------------------|
E|-----------------------------------------------------------------------------------------------------15-15-12-12-12--|
| /  slide up
| \  slide down
| h  hammer-on
| p  pull-off
| ~  vibrato
| +  harmonic
Related for Time To Remember tab