Song name
# A B C D E F G H I J K L M N O P Q R S T U V W X Y Z

Budgie - Homicidal Suicidal tab

budgie
homicidal suicidal

-------------------------------------------------------------|
-------------------------------------------------------------|
-------------------------------------------------------------|
-------------------------------------------------------------|
------------------------------5------------------------------|
----0---00----5--55--7----77-----7---7p0---------------------|

-------------------------------------------------------------|
-------------------------------------------------------------|
-------------------------------------------------------------|
-------------------------------------------------------------|
------------------------------5------------------------------|
----0---00----5--55--7----77-----7---(5)---------------------|


-------------------------------------------------------------|
-------------------------------------------------------------|
-------------------------------------------------------------|  x2
--------------------------7----------------------------------|
---9--99-99-99---9---7-9--5----------------------------------|
---7--77-77-77---7---5-7-------------------------------------|


------------------------|
------------------------|
------------------------|
-----7------------------|
--9--5-7----666666------|
--7----5----444444------|

-------------------------------------------------------------|
-------------------------------------------------------------|
-------------------------------------------------------------| x2
--------------------------3----------------------------------|
---5--55-55-55---5---3-5--1----------------------------------|
---3--33-33-33---3---1-3-------------------------------------|


------------------------|
------------------------|
------------------------|
-----3------------------|
--5--1-3----222222------|
--3----1----000000------|
Tap to rate this tab
 
# A B C D E F G H I J K L M N O P Q R S T U V W X Y Z