Guitaretab - guitar tabs
Song name
# A B C D E F G H I J K L M N O P Q R S T U V W X Y Z

Buena Vista Social Club - Hasta Siempre Comandante Che Guevara chords

Highlighted       Show chord diagrams
Hasta Siempre - Comandante Che Guevara

The D chord played in the Verse is played quickly before moving onto the C#.

The D -> C# chord interchange can be played as either barre or open chord.

In the open position the D hand position is moved down 1 fret and only the e, b 
and g strings are played.

The chords are as follows:
[ Tab from: http://www.guitaretab.com/b/buena-vista-social-club/219585.html ]
Verse
   F#m   Bm  D(open or barre)   C#
e|--2----2------2----5--------1----4--|
B|--2----3------3----7--------2----6--|
G|--2----4------2-or-7--------1-or-6--|
D|--4----4------0----7--------x----6--|
A|--4----2------0----5--------x----4--|
E|--2----2------0----5--------x----4--|


Chorus
   F#m   E   D(open or barre)   C#
e|--2----0------2----5--------1----4--|
B|--2----0------3----7--------2----6--|
G|--2----1------2-or-7--------1-or-6--|
D|--4----2------0----7--------x----6--|
A|--4----2------0----5--------x----4--|
E|--2----0------0----5--------x----4--|


Enjoy,"Hasta la Victoria Siempre" (Until the Everlasting Victory Always).

First Tab. Please Rate
Related for Hasta Siempre Comandante Che Guevara chords
×
Best way to learn
"Hasta Siempre Comandante Che Guevara"