Song name
# A B C D E F G H I J K L M N O P Q R S T U V W X Y Z

Buena Vista Social Club - El Cuarto De Tula tab

Am     E E    Am Am     E E    Am
-------------------------------------|
-------0-0-0---1--------0-0-0---1----|
-2-2-1-------2----2-2-1-------2------|
-------------------------------------|
-------------------------------------|
-------------------------------------|
Am              E             Am             E
-------------------------------------------------------------|
-1-0------------0--------------1-0-----------0---------------|
-----2-0----------2-0--------------2-0---------2-0-----------|
---------3-2-0--------3-2-0------------3-2-0-------3-2-0-----|
----------------------------3----------------------------3---|
-------------------------------------------------------------|


Am              G              F          E
En el barrio La Cachimba se ha formado la corredera
Am              G              F          E
En el barrio La Cachimba se ha formado la corredera
     Am         G                F             E
Allá fueron los bomberos con sus campanas, sus sirenas
     Am         G                F             E
Allí fueron los bomberos con sus campanas, sus sirenas


G7 C      G7  C      E   Am     E   Am
Ay mama, ¿qué pasó? ¡Ay, mamá! ¿qué pasó?



             E              Am
El cuarto de Tula, le cogió candela
             E                 Am
Se quedó dormida y no apagó la vela

Rest of the song repeats Am and E
Resto de la canción repite Am y E
Tap to rate this tab
 
# A B C D E F G H I J K L M N O P Q R S T U V W X Y Z