Song name
# A B C D E F G H I J K L M N O P Q R S T U V W X Y Z

Buena Vista Social Club - El Carretero tab

EL carretero
Guillermo Portables
(Buenavista social club)

----Intro---
(original)
  E     A
e---0-----0--|
b---0-----1--|
g---1-----2--|
d------------|
a---------0--|
E-1-0--1-----|

(Version de BVSC)
(Cappo en 5to traste)

e-----7----------8-------7--5---|-----7----------8--------7----------|
b-5-5---5--5-5--5--5--5-5--5----|-5-5---5--5-5--5--5--5-5--5--.------|
g--------------8----------------|--------------8-------------5h7p5---|
d-------------7--------------7--|------------7---------------------7-|
a--------------0-------------0--|----------------------------------0-|
E--------------(Band starts)----|------------------------------------|

e-----------------|-----------------|
b-----5-----------|---6-5-----------|
g-5h7---5h7p5-----|-------5h7p5-----|
d-------------7---|-7-----------7---|
a-------------0---|-------------0---|
E-----------------|-----------------|

(Ritmo general:)
  Lam Do Mi7
e-5------7777-----|
b-5------5555-----|
g-5------7777-----|
d-7------6666-----|
a-7------7777-----|
E-5-5-8--x----8-5-|

---Verso---
Lam       Mi7          Lam
  por el camino del sitio mio
        Mi7           Lam
un carretero alegre paso
Lam         Mi7                Lam
  con su canciones que es muy sentida
        Mi7           Lam
y muy guajira alegre cantó

Me voy al transbordador
a descargar la carreta 
para cumplir con la meta   
de mi pequeña labor

---CORO---

A caballo vamos pa´l monte 
a caballo vamos pa´l monte(bis)

---Solo---

(jugar con la introduccion)

---Verso---

Yo trabajo sin reposo 
para poderme casar (bis)
y si lo llego a lograr
seré un guajiro dichoso

---CORO---

---Verso---

Soy guajiro y carretero 
y en el campo vivo bien (bis)
porque el campo es el eden
más lindo del mundo entero

---CORO---

---Verso---

Dm         Am                   E7
Chapea el monte, cultiva el llano
               Am 
recoge el fruto de tu sudor (bis)
Tap to rate this tab
# A B C D E F G H I J K L M N O P Q R S T U V W X Y Z