Song name
# A B C D E F G H I J K L M N O P Q R S T U V W X Y Z

Buffalo Springfield - Mr Soul tab

Help us improve GuitareTab! Take a short survey!
buffalo springfield
Mr soul
retrospective
^-bend

intro-guitar 1
e---------0-----------------|----------------------------|
b-------0------0------------|----------------------------|
g-----7------7----7-------7-|----------------------------|
d---7---------------7---7---|----2----4-5---5---4/5-4/5--|
a-7-------------------7-----|----2----4-5---5---4/5-4/5--|
E---------------------------|--0-0--0-----0---0----------|
guitar 2
e--------------------------|--------|
b--------------------------|--------|
g-14p12-14p12-14p12-14p12--|-14^----|
d--------------------------|--------|
a--------------------------|--------|
E--------------------------|--------|
verse
e-----------------------------|------------------------------------|
b-----------------------------|------------------------------------|
g-----------------------------|------------------------------------|
d----2-----4-5---5----4/5-4/5-4X----2----4-5----5---4/5-4/5--------|
a----2-----4-5---5----4/5-4/5-|---0-0--0------0---0----------------|
E-0--0---0-----0-----0--------|------------------------------------|

e------------------------------------------------------|
b------------------------------------------------------|
g------------------------------------------------------|
d-----2-----4--5----5---4/5-4/5------------------------|
a-----2-----4--5----5---4/5-4/5------------------------|
E--0--0---0-------0---0--------------------------------|
     D        A         E   <4 beats
e--------|---------|--------|--------------------------------|
b--------|---------|--------|--------------------------------|
g--------|---------|--------|--------------------------------|
d--------|---------|--------|--------------------------------|
a--------|---------|--------|--------------------------------|
E--------|---------|--------|--0wh---------------------------|
Related for Mr Soul tab