Song name
# A B C D E F G H I J K L M N O P Q R S T U V W X Y Z

Buffalo Springfield - A Childs Claim To Fame tab

-------------------------------------------------------------------------------
                             A Child's Claim to Fame - Buffalo Springfield
-------------------------------------------------------------------------------
Tabbed by:  J. Eule     
E-mail:  joeeule@verizon.net

Tuning:  standard

Notes:  I've tabbed this before but a couple of parts weren't right so I
decided to redo the entire thing.  I have three parts here.  First is the little
lick played by Richie Furay before each verse.  Second is the solo Neil Young plays
on the record.  Third is the second solo Young plays at the Springfield's final 
show in Long Beach in 1968.

Richie Furay lick

e|-----3---------------------------------------------------------------------|
B|-0h3----------3------------------------------------------------------------|
G|--------0h2-----------2p0--------------------------------------------------|
D|-----------------0h2-------------------------------------------------------|
A|---------------------------------------------------------------------------|
E|---------------------------3-----------------------------------------------|

Neil Young solo from album

e|---------------------------------------------10----------------------------|
B|---------------------------------------------10h12-------------------------|
G|------------------------------------12b-12b--------------------------------|
D|---------------------------------------------------------------------------|
A|----0-2-0-2-0-2-0-3-0-3-2-0------------------------------------------------|
E|--3-------------------------3----------------------------------------------|
 
Bar e, b, & G strings at 7th fret.   Bar e, B, & G strings at 5th fret.  
e|---------------------------------------------------------------------------|
B|------7-----7------8---7-----7---------5-----5-----6---5-----5-------------|
G|--7-7---7-9---7-7----7---7-9-------5-5---5-7---5-5---5---5-7---------------|
D|---------------------------------------------------------------------------|
A|---------------------------------------------------------------------------|
E|---------------------------------------------------------------------------|

e|--------------------10-----------------------------------------------------|
B|-12--10--12--10--12----12-10-----------------------------------------------|
G|-----------------------------12--------------------------------------------|
D|---------------------------------------------------------------------------|
A|---------------------------------------------------------------------------|
E|---------------------------------------------------------------------------|
   
Neil Young solo from Long Beach.
                                          
e|----------10-10---10-12-12-10-----------10----10-12-12-10---------10-------|
B|-10-11-12-------12-----------12-10-12------12-------------12-10-12---12-10-|
G|---------------------------------------------------------------------------|
D|---------------------------------------------------------------------------|
A|---------------------------------------------------------------------------|
E|---------------------------------------------------------------------------|

[Fool with this progression]          [Bend all notes at 17th fret]
e|-11-12-13-14-------------15-15-17-15-17-17-17-17-17-17-17-17p15---15-17-15-|
B|-12-13-14-15---15-16-17-----------------------------------------17---------|
G|-11-12-13-14---------------------------------------------------------------|
D|---------------------------------------------------------------------------|
A|---------------------------------------------------------------------------|
E|---------------------------------------------------------------------------|


| /   slide up
| \   slide down
| h   hammer-on
| p   pull-off
| ~   vibrato
| +   harmonic
| x   Mute note
| b   Bend
| pb  Pre-bend
| br  Bend release
| pbr Pre-bend release
| brb Bend release bend

************************************
Tap to rate this tab
 
# A B C D E F G H I J K L M N O P Q R S T U V W X Y Z