Song name
# A B C D E F G H I J K L M N O P Q R S T U V W X Y Z

Buffalo Springfield - Go And Say Goodbye tab

-------------------------------------------------------------------------------
			     Go and Say Goodbye- Buffalo Springfield
------------------------------------------------------------------------------
Tabbed by:me
Email:

Tuning:standard
Intro
e|--------------------------------------------------------------------------|
B|-------------------------1-1----------------------------------------------|
G|--------0000--2-0-2-0---------2-0----2-0-----2-0--------------0000-2-0-2--|
D|-0-3/5---------------------------3--------3-------3-0--0-3/5--------------|
A|--------------------------------------------------------------------------|
E|--------------------------------------------------------------------------|
                                     G    C    G   C
e|-----------0-3-----------------------------------------------------------------------|
B|----1-1-3--------3-1-----------------------------------------------------------------|
G|-0--------------------2-0----------------------------0-------------------------------|
D|----------------------------2-000-----------------------2-0-2-0----------------------|
A|-----------------------------------------------------------------2-------------------|
E|---------------------------------------------------------------------3---------------|
Verse     G     F     C    D  (twice)
e|---------------------------------------------------------------------------|
B|---------------------------------------------------------------------------|
G|---------------------------------------------------------------------------|
D|---------------------------------------------------------------------------|
A|---------------------------------------------------------------------------|
E|---------------------------------------------------------------------------|
Pre-chorus G C G C G C G   Chorus C   C/B   Am  G   D D
e|-------------------------------------0-----------------------------------------|
B|-------------------------------------1-----------------------------------------|
G|-------------------------------------0-----------------------------------------|
D|-------------------------------------0-----------------------------------------|
A|-------------------------------------2-----------------------------------------|
E|-------------------------------------x-----------------------------------------|
      G C G C
e|---------------------------------------------------------------------------------|
B|---------------------------------------------------------------------------------|
G|---------------0-----------------------------------------------------------------|
D|--------------------2-0-2-0------------------------------------------------------|
A|------------------------------2--------------------------------------------------|
E|----------------------------------3----------------------------------------------|
Same verse and chorus as before then you go into the random A part
e|---------------------------------------------------------------------------|
B|---------------------------------------------------------------------------|
G|---------------------------------------------------------------------------|
D|---------------------------------------------------------------------------|
A|---------------------------------------------------------------------------|
E|---------------------------------------------------------------------------|
      A D   G   A D (play for six beats then stop short) into chorus
e|---------------------------------------------------------------------------|
B|---------------------------------------------------------------------------|
G|---------------------------------------------------------------------------|
D|---------------------------------------------------------------------------|
A|---------------------------------------------------------------------------|
E|---------------------------------------------------------------------------|
intro again but after the first part go into the solo
e|----------10----------10--------------8---------8--------3------------|
B|--10h12--------10h12------10----8h10------8h10-----------3h5----------|
G|----------------------------------------------------10---------5-4-2--|
D|----------------------------------------------------------------------|
A|----------------------------------------------------------------------|
E|----------------------------------------------------------------------|

e|--10-10-8-7-8-7-7---------------------------7----10-10-8-7----8-7----|
B|------------------10-8-10-8-8-----------8------------------8------8--|
G|------------------------------9-7-9-7--------------------------------|
D|---------------------------------------------------------------------|
A|---------------------------------------------------------------------|
E|---------------------------------------------------------------------|

e|--8-7-----------7-------10----15-15---12-10-12-10-10-8-7-8-7-7-10-8-10-8--|
B|------8----10------13-----------------------------------------------------|
G|--------------------------------------------------------------------------|
D|--------------------------------------------------------------------------|
A|--------------------------------------------------------------------------|
E|--------------------------------------------------------------------------|
Then go back to the verse and finish off with two choruses in a row with a little f to c 
the end. just listen to it
Tap to rate this tab
 
# A B C D E F G H I J K L M N O P Q R S T U V W X Y Z