Guitaretab - guitar tabs
Song name
# A B C D E F G H I J K L M N O P Q R S T U V W X Y Z

Buffalo Springfield - A Childs Clame To Fame tab

Highlighted       Show chord diagrams
Buffalo Springfield - A Child's Claim To Fame Chords
By Benny Levi
(I haven't tabbed the solos, If you can help with it, Send it to benny_levos@walla.com)


Chords Used:

Dsus4: xx0233 (Optional)
g/b:   x20003
G:     320003
C:     x32010
D:     xx0232

INTRO:

		       G   C  g/b

-----3-----------------3---0--3--|
-0h1-------3-----------0---1--0--|
-------0h2--------2----0---0--0--|
--------------0h2------0---2--0--|
-----------------------2---3--2--|
-----------------------3---x--x--|


G            C     g/b
there goes another day
      C       g/b D Dsus4
and I wonder  why
        C
You and I
	     G    C g/b
Keep telling lies


G                    C        g/b
I can't believe that what you say
       C          g/b   D Dsus4
'cause tomorrow's lullaby
           C
Can't pacify
            G      C g/b
My lonesome crying

-----3----------------|
-0h1-------3----------|
-------0h2--------2---|
--------------0h2-----|
----------------------|
----------------------|


Solo: G   C  g/b  C  g/b  D 
C   G   C   g/b

[ Tab from: http://www.guitaretab.com/b/buffalo-springfield/93935.html ]
-----3----------------|
-0h1-------3----------|
-------0h2--------2---|
--------------0h2-----|
----------------------|
----------------------|


G                   C       g/b
Make believe that's all you know
       C      g/b        D   Dsus4
And to make believe is a game
          C
A child's rein
                    G    C g/b
You've changed your name

G          C           g/b
So sadly I watched the show
    C          g/b   D   Dsus4
and see what you became
             C
Truth is the shame
               G    C g/b
Yeah, too much fame


-----3----------------|
-0h1-------3----------|
-------0h2--------2---|
--------------0h2-----|
----------------------|
----------------------|


Solo: G   C  g/b  C  g/b  D 
C   G   C   g/b


-----3----------------|
-0h1-------3----------|
-------0h2--------2---|
--------------0h2-----|
----------------------|
----------------------|


G            C     g/b
there goes another day
      C      g/b D Dsus4
and I wonder why
        C
You and I
	     G    C g/b
Keep telling lies
Related for A Childs Clame To Fame tab
A Childs Clame To Fame chords by Buffalo Springfield