Guitaretab - guitar tabs
Song name
# A B C D E F G H I J K L M N O P Q R S T U V W X Y Z

Buffalo Tom - Sparklers tab

From: "Jeffrey James Wolf" 
Date: Thu, 14 Sep 1995 09:06:09 -0400

 BUFFALO TOM - " SPARKLERS " off the SLEEPY EYED cd



   I am posting this song in response to a recent request.

   TO PLAY THIS SONG EASIEST, CAPO THE 3rd FRET! ( BT frequently

   capoes 3rd and 5th frets in many of their songs!)

   To simplify things for me, I tabbed it as if the capoed fret

   were open strings.
                                     D3
  EXAMPLE)  5    is not a true D     2
            6    but i call it D3    3
            5    as if the capoed    2
            3    frets were 0  ->    0
            3                        0
            3                        0



  CAPO 3rd FRET !!!   CAPO 3rd FRET !!!  CAPO 3rd FRET !!!


   INTRO AND VERSES :

            D3                      A3

   C |  2--2--2--2--2---2----------------------------------
   A |  3--3--3--3--3-----3------2--0--0h2--0---0-0-0------
   P |  2--2--2--2--2-------2----2--2--2-2--2---2-2-2------
   O |  0--0--0--0--0------------2--2--2-2--2---2-2-2------
     |  ---------------------------------------------------
   3 |  ---------------------------------------------------

        IN THE COLORED LIGHTS.....


           Em3                         G3
        ----------------------------------------3-----------
        ----------------------------------------3-----------
        -----0--0--0--0--0----------------0-----0-----------
        -2---2--2--2--2--2--------------0---0---0-----------
        -2---2--2--2--2--2----------2-----------------------
        -0---0--0--0--0--0--0-0-2-3---3---------------------


         THE END IS IN SIGHT...



     CHORUS : the chorus is the same CHORDS but more full and

              a littler bit faster :


            D3                  A3

         ..LIKE THE DRUG ON THE TIP OF YOUR TONGUE ,


           Em3                 G3

           SHE GIVES SPARKLES(?)...

~~~~~~~~~~~~~~~~~~~~~~~~~~~~~~~~~~~~~~~~~~~~~~~~~~~~~~~~~~~~~~~~~~~~~~~~

           THATS ABOUT IT!!! ANY  comments - JJWOLF@eos.ncsu.edu


-- 
Jeffrey James Wolf
[ Tab from: http://www.guitaretab.com/b/buffalo-tom/2591.html ]
Related for Sparklers tab
×
Sparklers