Guitaretab - guitar tabs
Song name
# A B C D E F G H I J K L M N O P Q R S T U V W X Y Z

Buffett Jimmy - Manana tab

Marquess-manana

Standard Tuning

Tab by isar

intro:

Guitar 2

E |-9-7---------------------------|
B |------10-7---7-10-9-7--10-7----|
G |-----------9----------9--------|
D |-------------------------------|
A |-------------------------------|
E |-------------------------------| x2

Guitar 1
E |---7--------7-----9---|
B |---7--------9-----10--|
G |---7--------9-----11--|
D |---9--------9-----11--|
A |---9--------7-----9---|
E |---7--------7-----9---|


E |---7--------7-----7---|
B |---7--------9-----7---|
G |---7--------9-----8---|
D |---9--------9-----9---|
A |---9--------7-----9---|
E |---7--------7-----7---|

Verse:

Guitar 1 (up Strokes)
E |---7--------7-----9---|
B |---7--------9-----10--|
G |---7--------9-----11--|
D |---9--------9-----11--|
A |---9--------7-----9---|
E |---7--------7-----9---|

[ Tab from: http://www.guitaretab.com/b/buffett-jimmy/2633.html ]
E |---7--------7-----7---|
B |---7--------9-----7---|
G |---7--------9-----8---|
D |---9--------9-----9---|
A |---9--------7-----9---|
E |---7--------7-----7---|

Chorus: (same as Verse but fast alternating strokes)
E |---7--------7-----9---|
B |---7--------9-----10--|
G |---7--------9-----11--|
D |---9--------9-----11--|
A |---9--------7-----9---|
E |---7--------7-----9---|


E |---7--------7-----7---|
B |---7--------9-----7---|
G |---7--------9-----8---|
D |---9--------9-----9---|
A |---9--------7-----9---|
E |---7--------7-----7---|


This one I figured out seems to match. I also tryed to put it into a GuitarPro tab but i 
trouble matching the offset of guitar 1 after guitar 2 started...
plz correct or complete this Tab. . btw. would be nice if someone figured out LaHisteria 
Marquess, I just can't trak down the guitar, because of its minor role.

Reply to ic3manonline@hotmail.com in german or english
Related for Manana tab
Manana chords by Buffett Jimmy