Song name
# A B C D E F G H I J K L M N O P Q R S T U V W X Y Z

Buffett Jimmy - Margaritaville tab

Artist: Jimmy Buffett
Song: Margaritaville
Tabbed by: Unlockitall (unlockital1@aim.com)

Tuning: Regular (EADGBE)
*I know this is shortened, there is some gone from the middle, but it's pretty much the same
Also its not how it goes in the real song, but its the melody*

e|--3-  This is a G chord thats played in the song
B|--0-
G|--0-
D|--0-
A|--2-
E|--3-

e|--3-3-3-1--3-----3-3-3-1--3--------0--0--0-----------3-3-3-3-3-3-3-3-3-3--------|
B|--4-4-4-2--4-----4-4-4-2--4--------1--1--1----3--1---0-0-0-0-0-0-0-0-0-0--------|
G|----------------------------------------------4--2---0-0-0-0-0-0-0-0-0-0--------|
D|-----------------------------------------------------0-0-0-0-0-0-0-0-0-0--------|
A|-----------------------------------------------------2-2-2-2-2-2-2-2-2-2--------|
E|-----------------------------------------------------3-3-3-3-3-3-3-3-3-3--------|

e|------------------------------------0-------------------------------------------|
B|--3-3-3-1--3----3-3-3-1--0---3-3-3-----3-3-1-0-3----1-1-1-0--1----1-1-1-0--1----|
G|--------------------------------------------------------------------------------|
D|--------------------------------------------------------------------------------|
A|--------------------------------------------------------------------------------|
E|--------------------------------------------------------------------------------|

e|-------0-------------------------0-0--------------------------------------------|
B|--3-3----3---3-3-1-1-1----0-----------3-3--1-1--0-1-0-1-0-----------------------|
G|----------------------------0-----------------------------0---------------------|
D|--------------------------------------------------------------------------------|
A|--------------------------------------------------------------------------------|
E|--------------------------------------------------------------------------------|

e|--0-0-0--0-------0--------0--0-0-2---0-2---3------------------------------------|
B|-----------3-3-3---3-0-------------3---------3-----0-1---1-1-1------------------|
G|--------------------------------------------------------------------------------|
D|--------------------------------------------------------------------------------|
A|--------------------------------------------------------------------------------|
E|--------------------------------------------------------------------------------|

e|-----------------------------0-0-0-2---0--2--3----------------------------------|
B|---1-1--0--------------3-3-----------3---------3-0--0-1---1-1-1---1-1-0---------|
G|----------0-0-----------------------------------------------------------0-0-----|
D|--------------------------------------------------------------------------------|
A|--------------------------------------------------------------------------------|
E|--------------------------------------------------------------------------------|


e|--3-3-3-1--3-----3-3-3-1--3--------0--0--0-----------3---------|
B|--4-4-4-2--4-----4-4-4-2--4--------1--1--1----3--1---0---------|
G|----------------------------------------------4--2---0---------|
D|-----------------------------------------------------0---------|
A|-----------------------------------------------------2---------|
E|-----------------------------------------------------3---------|
Tap to rate this tab
# A B C D E F G H I J K L M N O P Q R S T U V W X Y Z