Song name
# A B C D E F G H I J K L M N O P Q R S T U V W X Y Z

Buggles - Video Killed The Radio Star chords

Highlighted       Show chord diagrams
I've never found a tab I liked for this song, so I found some dodgy piano music
and spent a few hours working off it to come up with this:


CAPO 1

Intro:
C

Verse:
C D F G

Pre Chorus:
E F G


Chorus:
C F x2
C Bm Am
G Am

Solo:
e-------------------|
B-------------------|
G-----2-0-------0---| x3
D---------3-2-3-----|
A-0-3-------------3-|
E-------------------|

e--------0-------2-------1--3-----1-----1--3-|
B--------1-------3-------1--3--1--1--1--1--0-|
G------0-0-----2-2-----2-2--0--2--2--2--2--0-|
D----2-------0-------3------0--2--3--2--3--0-|
A--3-------0-------3--------2-----3-----3--2-|
E---------------------------3-----1-----1--3-|

Interlude:
C F

Out:
G Am F Am G
Tap to rate this tab
 
# A B C D E F G H I J K L M N O P Q R S T U V W X Y Z