Song name
# A B C D E F G H I J K L M N O P Q R S T U V W X Y Z

Buggles - Video Killed The Radio Star chords

Highlighted       Show chord diagrams
-------------------------------------------------------------------------------
                   Video Killed the Radio Star - The Buggles
-------------------------------------------------------------------------------
Tabbed by: Alejandro B


Tuning: Standard, Capo 1st fret



Intro:

e|---------------------------------------------------------------------------|
B|--------11----------9----------7-------------------------------------------|
G|------8-----------6----------6---------------------------------------------|
D|----8-----------6----------8--------11--10---------------------------------|
A|--9-----------8----------6------------------8\-----------------------------|
E|---------------------------------------------------------------------------|

e|------------------------------------3--------------------------------------|
B|--------11----------9----------7----3--------------------------------------|
G|------8-----------6----------6------4--------------------------------------|
D|----8-----------6----------8--------5--------------------------------------|
A|--9-----------8----------6----------5--------------------------------------|
E|------------------------------------3--------------------------------------|


Verse 1:

C             Dm              G 
  I heard you on the wireless back in Fifty-Two

C         Dm             G
  Lying awake intent to tuning in on you

C           Dm              G
  If I was young it didn't stop you comin' through

C     Dm     G
Oh-ah Oh-ah


(Repeat for Verse 2)


Bridge:

C     Dm
Oh-ah Oh-ah

G
    I met your children

C     Dm
Oh-ah Oh-ah

G
    What did you tell them?



Chorus 1:

C                F
Video killed the radio star

C                F
Video killed the radio star

C        G         Am
Pictures came and broke your heart

G            Am
Oh, ah-ah-ah oh



(Verse 3 - as verse 1)


(Bridge)



Chorus 2:

C                F
Video killed the radio star

C                F
Video killed the radio star

C      G       Am
In my mind and in my car

    C       G           Am
We can't rewind, we've gone too far

G            Am
Oh, ah-ah-ah oh

G            Am
Oh, ah-ah-ah oh



Solo:

    F      G      C      F             G      C        F
e|---------------------------------------------------------------------------|
B|------11-9------------------------11-9-------------9-----------------------|
G|----8-------11--10--------------8-------11--10--11-------------------------|
D|--8----------------12--9------8----------------------12--------------------|
A|---------------------------------------------------------------------------|
E|---------------------------------------------------------------------------|

    F      G      E      Am           (No Chord)
e|---------------------------------------------------------------------------|
B|------11-9--------------------------------11----------9----------7---------|
G|----8-------11--10--8-------------------8-----------6----------6-----------|
D|--8--------------------12-------------8-----------6----------8-------------|
A|------------------------------------9-----------8----------6---------------|
E|---------------------------------------------------------------------------|

    G         Am     F       Am      F   G
e|--11-----11(b)13---9----11(b)13----9---11----------------------------------|
B|--9------9-(b)11---7----9-(b)11----7---9-----------------------------------|
G|---------------------------------------------------------------------------|
D|---------------------------------------------------------------------------|
A|---------------------------------------------------------------------------|
E|---------------------------------------------------------------------------|



Chorus 3:

C                F
Video killed the radio star

C                F
Video killed the radio star

C      G       Am
In my mind and in my car

    C       G           Am
We can't rewind, we've gone too far

C        G         Am
Pictures came and broke your heart

C             G      Am
Put all the blame on VTR



Ending:

    C  Dm  G
You are

        C  Dm  G
A radio star

    C  Dm  G
You are

        C  Dm  G
A radio star

C                F
Video killed the radio star

C                F
Video killed the radio star

(Repeat to fade)



************************************

| \   slide down
| B   Bend

************************************
Tap to rate this tab
# A B C D E F G H I J K L M N O P Q R S T U V W X Y Z