Song name
# A B C D E F G H I J K L M N O P Q R S T U V W X Y Z

Bugoy Drilon - Pagkat Mahal Kita tab

             Pagkat Mahal Kita- Bugoy Drilon
-------------------------------------------------------------------------------
Tabbed by:Randy Andal Ante
E-mail:barakotayo@gmail.com
 This is instrumental acoustic version, it is not perfect but can be improve. Just wrote this from
  listening to the song.
please rate...thank you...


Tuning:Standard

 Lyrics

verse 1
Nais kong malaman mo
tunay ang pag-ibig ko
itoy patutunayan ko sa'yo
Di ka dapat manangba
sa piling ko'y liligaya
basta't ako'y para sayo at akin ka

Chorus:
Pagka't mahal kita walang iba
ikaw ang nais na laging makasama
walang kasing saya aking nadarama
sa bawat sandaling.....kapiling ka

Verse 2:
 bawat halik at yakap mo
parang malulunod ako
sa labis na kasiyahan na dulot mo
ngayong kasama na kita
ayoko nang malayo ka
hinda na hahayaang magkawala'y pa

(Repeat Chorus)




  verse 1
e|-------------------------------------------------0----------------1--3--1-----|
B|----3--3---3b--3----3-----------1---------------------------------------------|
G|-5--5----5-------0-----0-----0-----0--2--4--5---------4---4-----2-------------|
D|--------------------2-----2-----------------5--5---5--5--5---5--3-------------|
A|------------------------------------------------------------------------------|
E|------------------------------------------------------------------------------|


  verse 2
e|---------------------------------------------------0------------1--3~ ---------|
B|----3--3---3b--3-------3-----------1-------------------------------------------|
G|-5--5----5-------5--0-------0-----0-----0--2--4--5-------4----2----------------|
D|-------------------------2-----2-----------------5--5--5---5--3----------------|
A|-------------------------------------------------------------------------------|
E|-------------------------------------------------------------------------------|


  chorus
e|----0--5/---------3/--0----------------------------------------1--3~ ----------|
B|-5--------5--3-----------1-------0--1--1-------1----1/--3--0-------------------|
G|-5-------------0-----------0--2----------2------2---2/--4----------------------|
D|--------------------------------------------3-------3/--5----------------------|
A|-------------------------------------------------------------------------------|
E|-----------------------------------------------------------3-------------------|
  pgkat m-hal kta wlng i ba



************************************

| /   slide up
| \   slide down
| h   hammer-on
| p   pull-off
| ~   vibrato
| +   harmonic
| x   Mute note
| b   Bend
| pb  Pre-bend
| br  Bend release
| pbr Pre-bend release
| brb Bend release bend

************************************
Tap to rate this tab
# A B C D E F G H I J K L M N O P Q R S T U V W X Y Z