Song name
# A B C D E F G H I J K L M N O P Q R S T U V W X Y Z

Bugsy Malone - Ordinary Fool tab

We transposed this down 4 frets due to it being too high in pitch for our singer to 
if you require it higher, just use a capo or something

Intro
  G               G
|-3---------------3--------------|
|-3---------------3--------------|
|-4---------------4--------------|
|-5---------------5--------------|
|-5---------------5--------------|
|-3---------------3--------------|


Verse
  C(7)            Bm              C(7)            Bm
|-3---3---3---3---2---2---2---2---3---3---3---3---2---2---2---2-|
|-5---5---5---5---3---3---3---3---5---5---5---5---3---3---3---3-|
|-4---4---4---4---4---4---4---4---4---4---4---4---4---4---4---4-|
|-5---5---5---5---4---4---4---4---5---5---5---5---4---4---4---4-|
|-3---3---3---3---2---2---2---2---3---3---3---3---2---2---2---2-|
|-X---X---X---X---X---X---X---X---X---X---X---X---X---X---X---X-|

Chorus
  C(7)            C7              G               E
|-3---3---3---3---3---3---3---3---3---3---3---3---0---0---0---0-|
|-5---5---5---5---5---5---5---5---3---3---3---3---0---0---0---0-|
|-4---4---4---4---3---3---3---3---4---4---4---4---1---1---1---1-|
|-5---5---5---5---5---5---5---5---5---5---5---5---2---2---2---2-|
|-3---3---3---3---3---3---3---3---5---5---5---5---2---2---2---2-|
|-X---X---X---X---X---X---X---X---3---3---3---3---0---0---0---0-|

  C(7)            D
|-3---3---3---3---2---2---2---2-|
|-5---5---5---5---3---3---3---3-|
|-4---4---4---4---2---2---2---2-|
|-5---5---5---5---0---0---0---0-|
|-3---3---3---3---X---X---X---X-|
|-X---X---X---X---X---X---X---X-|
Tap to rate this tab
# A B C D E F G H I J K L M N O P Q R S T U V W X Y Z