Song name
# A B C D E F G H I J K L M N O P Q R S T U V W X Y Z

Building 429 - I Belong To You tab

 --------------------------------------
| Artist   : Building 429              |
| Title    : I Belong To You           |
| Album    : Rise        	       |
|                                      |
| Tabbed by: dustin7up                 |
| Tuning   : 1 Step Down {D,G,C,F,A,D} |
 --------------------------------------



Verse 1:

D|--------------------------------------------------------|
A|--------------------------------------------------------|
F|---------0------------0------------0------------0-------|
C|-------4---4--------4---4--------4---4--------4---4-----| {x2}
G|-----5-------5----5-------5----5-------5----5-------5---|
D|---3------------3------------3------------3-------------|
   I stand astounded by your unfailing love, Your grace,
D|--------------------------------------------------------|
A|--------------------------------------------------------|
F|---------7------------7------------7------------7-------|
C|-------9---9--------9---9--------9---9--------9---9-----| {x1}
G|-----9-------9----9-------9----9-------9----9-------9---|
D|---7------------7------------7------------7-------------|
   Imparted it rings freedom in,
D|--------------------------------------------------------|
A|--------------------------------------------------------|
F|---------0------------0------------0------------0-------|
C|-------4---4--------4---4--------4---4--------4---4-----| {x3}
G|-----5-------5----5-------5----5-------5----5-------5---|
D|---3------------3------------3------------3-------------|
   My soul. So I lift a voice to reach into the heavens, Trying to,
D|------------------------------------------------------------|
A|------------------------------------------------------------|
F|---------7------------7------------7------------7-----------|
C|-------9---9--------9---9--------9---9--------9---9----5~---| {x1}
G|-----9-------9----9-------9----9-------9----9-------9--5~---|
D|---7------------7------------7------------7------------3~---|
   Find a way to say how much I love you.



Chorus:

     C                         F
D|-----------------------------------------------|
A|-----------------------------------------------|
F|---7-7-7-7-7-7-7-7-----------------------------|
C|---7-7-7-7-7-7-7-7--7-7-7-7--5-5-5-5-5-5-5-5---| {x1}
G|---5-5-5-5-5-5-5-5--7-7-7-7--5-5-5-5-5-5-5-5---|
D|--------------------5-5-5-5--3-3-3-3-3-3-3-3---|
   You spoke my world into existence, Designed my mind and,
              Am               F
D|-----------------------------------------------|
A|-----------------------------------------------|
F|------------4-4-4-4-4-4-4-4--------------------|
C|---4-4-4-4--4-4-4-4-4-4-4-4--5-5-5-5-5-5-5-5---| {x1}
G|---4-4-4-4--2-2-2-2-2-2-2-2--5-5-5-5-5-5-5-5---|
D|---2-2-2-2-------------------3-3-3-3-3-3-3-3---|
   Soul even knowing. That I would be the one to break your heart, But,
     C                         F
D|-----------------------------------------------|
A|-----------------------------------------------|
F|---7-7-7-7-7-7-7-7-----------------------------|
C|---7-7-7-7-7-7-7-7--7-7-7-7--5-5-5-5-5-5-5-5---| {x1}
G|---5-5-5-5-5-5-5-5--7-7-7-7--5-5-5-5-5-5-5-5---|
D|--------------------5-5-5-5--3-3-3-3-3-3-3-3---|
   You sent your only son to be our savior. You sent the living,
             Am                                F
D|--------------------------------------------------|
A|--------------------------------------------------|
F|-----------4-4-4-4-4-4-4-4--4-4-4-4-4-4-4-4-------|
C|--4-4-4-4--4-4-4-4-4-4-4-4--4-4-4-4-4-4-4-4--5~---| {x1}
G|--4-4-4-4--2-2-2-2-2-2-2-2--2-2-2-2-2-2-2-2--5~---|
D|--2-2-2-2------------------------------------3~---|
   King to be our servant, And bought me with a price I can't imagine.



Verse 2:

D|--------------------------------------------------------|
A|--------------------------------------------------------|
F|---------0------------0------------0------------0-------|
C|-------4---4--------4---4--------4---4--------4---4-----| {x2}
G|-----5-------5----5-------5----5-------5----5-------5---|
D|---3------------3------------3------------3-------------|
   So let the world crash down all around me, Cause I'm not,
D|--------------------------------------------------------|
A|--------------------------------------------------------|
F|---------7------------7------------7------------7-------|
C|-------9---9--------9---9--------9---9--------9---9-----| {x1}
G|-----9-------9----9-------9----9-------9----9-------9---|
D|---7------------7------------7------------7-------------|
   Affected by all the words that,
D|--------------------------------------------------------|
A|--------------------------------------------------------|
F|---------0------------0------------0------------0-------|
C|-------4---4--------4---4--------4---4--------4---4-----| {x2}
G|-----5-------5----5-------5----5-------5----5-------5---|
D|---3------------3------------3------------3-------------|
   They spew. I only live to sing, praises to my king,
D|--------------------------------------------------------------------------------------|
A|--------------------------------------------------------------------------------------|
F|---------0------------0------------7------------7------------7------------7-----------|
C|-------4---4--------4---4--------9---9--------9---9--------9---9--------9---9----5~---| {x1}
G|-----5-------5----5-------5----9-------9----9-------9----9-------9----9-------9--5~---|
D|---3------------3------------7------------7------------7------------7------------3~---|
   I only live to prove how much I adore you.



Repeat Chorus


Tap to rate this tab
# A B C D E F G H I J K L M N O P Q R S T U V W X Y Z