Building 429 - Glory Defined tab

This is my first TAB so I hope everyone can understand it okay.

The tuning for this song is in a variation of the double drop C# tuning.
More specifically, it is the DADGAD tuning only half a step down.
Your guitar needs to be tuned as follows from top to bottom: C#,G#,C#,F#,G#,C#.
This makes the riffs much easier to play too.

Intro:

C#[---0---0---------0---0-------------0---0---------0---]
G#[---0---0---------0---0-------------0---0---------0---]
F#[---2---2---------0---0-------------2---2---------0---]
C#[---0---0---------0---0-------------0---0---------0---]
G#[---0---4---2-0---5---5-------4h5---0---4---2-0---5---]
C#[---0---X---------5---4---4h5-------0---X---------5---]

Verse 1:
            U           U     S-->S   S-->S
C#[---------0-0---------0-0---0---0---0---0---]
G#[---------0-4---------0-4---0---0---0---0---]
F#[-------0---0-------0---0---6---7---6---7---]
C#[---4h5-----5---4h5-----5---0---0---0---0---]
G#[---5-------5---5-------5---4---5---4---5---]
C#[---5-------5---5-------5---X---0---X---0---]

            U           U     S-->S   S-->S
C#[---------0-0---------0-0---0---0---0---0---0---]
G#[---------0-4---------0-4---0---0---0---0---0---]
F#[-------0---0-------0---0---6---7---6---7---7---]
C#[---4h5-----5---4h5-----5---0---0---0---0---0---]
G#[---5-------5---5-------X---4---5---4---5---9---]
C#[---5-------5---5-------X---X---0---X---0---9---]

Notes on the verses: Where there is a "U" at the top of TAB, I do an upstrum to hit the 
bottom two strings.
Also, where there is a "S-->S" at the top of the TAB, I am sliding from one chord to the other.

Chorus:

C#[---0---0---0---0---0---0---0---0---0---0---]
G#[---0---0---0---0---0---0---0---0---0---0---]
F#[---2---2---7---0---2---0---7---6---4---0---]
C#[---0---0---0---0---0---0---0---0---0---0---]
G#[---0---4---9---5---4---5---9---7---5---2---]
C#[---0---X---9---5---4---5---9---7---5---2---]

Back to the Intro:

C#[---0---0---------0---0-------------0---0---------0---]
G#[---0---0---------0---0-------------0---0---------0---]
F#[---2---2---------0---0-------------2---2---------0---]
C#[---0---0---------0---0-------------0---0---------0---]
G#[---0---4---2-0---5---5-------4h5---0---4---2-0---5---]
C#[---0---X---------5---4---4h5-------0---X---------5---]

Verse 2:
            U           U     S-->S   S-->S
C#[---------0-0---------0-0---0---0---0---0---]
G#[---------0-4---------0-4---0---0---0---0---]
F#[-------0---0-------0---0---6---7---6---7---]
C#[---4h5-----5---4h5-----5---0---0---0---0---]
G#[---5-------5---5-------5---4---5---4---5---]
C#[---5-------5---5-------5---X---0---X---0---]

            U           U     S-->S   S-->S
C#[---------0-0---------0-0---0---0---0---0---0---]
G#[---------0-4---------0-4---0---0---0---0---0---]
F#[-------0---0-------0---0---6---7---6---7---7---]
C#[---4h5-----5---4h5-----5---0---0---0---0---0---]
G#[---5-------5---5-------X---4---5---4---5---9---]
C#[---5-------5---5-------X---X---0---X---0---9---]

Chorus:

C#[---0---0---0---0---0---0---0---0---0---0---]
G#[---0---0---0---0---0---0---0---0---0---0---]
F#[---2---2---7---0---2---0---7---6---4---0---]
C#[---0---0---0---0---0---0---0---0---0---0---]
G#[---0---4---9---5---4---5---9---7---5---2---]
C#[---0---X---9---5---4---5---9---7---5---2---]

Bridge:

C#[---0---0----0---0---0---0---]
G#[---0---0----0---0---0---0---]
F#[---7---9----2---0---6---0---]
C#[---0---11---0---0---0---0---]
G#[---9---X----0---5---7---5---]
C#[---9---11---0---5---7---5---]

Chorus:

C#[---0---0---0---0---0---0---0---0---0---0---]
G#[---0---0---0---0---0---0---0---0---0---0---]
F#[---2---2---7---0---2---0---7---6---4---0---]
C#[---0---0---0---0---0---0---0---0---0---0---]
G#[---0---4---9---5---4---5---9---7---5---2---]
C#[---0---X---9---5---4---5---9---7---5---2---]

Chorus:

C#[---0---0---0---0---0---0---0---0---0---0---]
G#[---0---0---0---0---0---0---0---0---0---0---]
F#[---2---2---7---0---2---0---7---6---4---0---]
C#[---0---0---0---0---0---0---0---0---0---0---]
G#[---0---4---9---5---4---5---9---7---5---2---]
C#[---0---X---9---5---4---5---9---7---5---2---]

Back to the Intro for Outro:

C#[---0---0---------0---0-------------0---0---------0---]
G#[---0---0---------0---0-------------0---0---------0---]
F#[---2---2---------0---0-------------2---2---------0---]
C#[---0---0---------0---0-------------0---0---------0---]
G#[---0---4---2-0---5---5-------4h5---0---4---2-0---5---]
C#[---0---X---------5---4---4h5-------0---X---------5---]

That's the whole song from start to finish.
Just follow the TAB straight down the page and you should have it!
Listen to the song for the strumming patterns.  Enjoy!
Tap to rate this tab
 
# A B C D E F G H I J K L M N O P Q R S T U V W X Y Z