Song name
# A B C D E F G H I J K L M N O P Q R S T U V W X Y Z

Building 429 - Love Has Been Spoken tab

Capo 1

Intro/verse:

E-------------------------------------|
B-----------1-------0--1---0----------|
D-------------------------------0-----|
G--------2----------------------------|
A----0--------------------------------|
E---------------3---------------------|


E-------------0------0--1--0--------|
B-------------------------------2---|
D---------0-------------------------|
G-----------------------------------|
A-----3-----------------------------|
E----------------1------------------|

Chorus:
Am, G, C, F
Tap to rate this tab
# A B C D E F G H I J K L M N O P Q R S T U V W X Y Z