Song name
# A B C D E F G H I J K L M N O P Q R S T U V W X Y Z

Building 429 - Press On Wrecking Ball tab

Capo 5

e|----------------------------------------------------------------------|
B|----5--3---1---0----------5---3---1---0-------------------------------|
G|----------------------------------------------------------------------|
D|--------------------0-------------------------------------------------|
A|--3---2---2---2---h2-----3---2---2---2--------------------------------|
E|----------------------------------------------------------------------|

e|----------------------------------------------------------------------|
B|----5--3---1---0----------5---3---1---0-------------------------------|
G|----------------------------------------------------------------------|
D|--------------------0-------------------------------------------------|
A|--3---2---2---2---h2-----3---2---2---2--------------------------------|
E|----------------------------------------------------------------------|
Tap to rate this tab
 
# A B C D E F G H I J K L M N O P Q R S T U V W X Y Z