Song name
# A B C D E F G H I J K L M N O P Q R S T U V W X Y Z

Building 429 - Glory Defined tab

lyrics included.  enjoy!

tuning: all flatted and drop d

intro: guitar 1
eb-5-5--5-5--5-5-5-5--5---55-5-5-5-5-55-5-5--5-5--5-5-5~~-->
Bb-3-3--3-3--3-3-3-3--3---33-3-3-3-3-33-3-3--3-3--3-3-3~~-->
Gb--------------------------------------------------------->
Db--------------------------------------------------------->
Ab--------------------------------------------------------->
Db--------------------------------------------------------->

intro: guitar 2
      (A= 11th fret, B= 12th fret)
eb--------------------------------------------------------->
Bb--------------------------------------------------------->
Gb--------------------------------------------------------->
Db-B-B--A-A--9-7-5-5--4--0xx-5-7-9-A-B0hB-B--A-A--9-7-5~~-->
Ab-B-B--B-B--9-7-5-5--4--0xx-5-7-9-A-B0hB-B--B-B--9-7-5~~-->
Db-B-B--A-A--9-7-5-5--4--0xx-5-7-9-A-B0hB-B--A-A--9-7-5~~-->

verse 1: guitar 3
eb-------------------------------------------------------------------->
Bb----3-2--------3-2~~---------------------------3-2--------3-2~~----->
Gb-------2~~----------------------------------------2~~--------------->
Db-2/4--------2/4-----------------------------0h2--------0h2---------->
Ab-----------------------4-4-5~~--444-455-5~~--------------------7779->
Db-------------------------------------------------------------------->
there's always a better way there's always a bridge that needs crossing there's always 
straight and the narrow the wide and the shallow but I know that You're guiding me and 
best is yet to come You've given me hope for tomorrow and I know someday

chorus:
eb-------------------------------------------------------->
Bb-------------------------------------------------------->
Gb-------------------------------------------------------->
Db-0xx-BBBB-AAAA-9999-5555-444444-555555-999-777-555-777-->
Ab-0xx-BBBB-BBBB-9999-5555-444444-555555-999-777-555-777-->
Db-0xx-BBBB-AAAA-9999-5555-444444-555555-999-777-555-777-->
I'll wake up to find your glory defined and I will finally bow at Your feet whoa I will 
up Your name in honor and praise when I cross over Jordan I know that I'll be running 
to You

repeat intro

verse 2: use verse 1 tab for verse 2
it's always the simple things, it's always the obvious that crashes over me its always 
front of me it helps me to remember this is what I live for and I can't wait

repeat chorus

bridge: interrupts chorus
eb-------------------------------------------------------->
Bb-------------------------------------------------------->
Gb-------------------------------------------------------->
Db-9-9-9999-++9-9-A-A-AAAA-++A-A-B-B-BB00-5555-7~~-005~~-->
Ab-9-9-9999-++9-9-A-A-AAAA-++A-A-B-B-BB00-5555-7~~-005~~-->
Db-9-9-9999-++9-9-A-A-AAAA-++A-A-B-B-BB00-5555-7~~-005~~-->
and there's never a question in Your message never a moment without Your presence and 
never a doubt in my mind

repeat chorus twice

outro: intro
and I'll be running home to You
Tap to rate this tab
# A B C D E F G H I J K L M N O P Q R S T U V W X Y Z