Song name
# A B C D E F G H I J K L M N O P Q R S T U V W X Y Z

Building 429 - Searching For A Savior tab

          Bulding 429 Rise 
             
          track 1       I don't know the Chorus,but i'm working on it 
Tuning:Drop C# 
guitar 1                Intro                   
D#|------12--------------12-------------12----------------12------------------|
A#|-10-------------10-------------10----------------10------------------------|
F#|--------11---------------11-------------11----------------11--------14b----|
C#|----11-------------11----- -------11----------------11---------------------|
G#|---------------------------------------------------------------------------|
C#|---------------------------------------------------------------------------|
guitar 2
D#|---------------------------------------------------------------------------|
A#|---------------------------------------------------------------------------|
F#|----------4---4-----------4--4-------------4---4--------------4--4---------|
C#|----------4---4-----------4--4-------------4---4--------------4--4--- -----|
G#|----------2---2-----------2--2-------------2---2--------------2--2---------|
C#|---------------------------------------------------------------------------|
guitar 1    
|--10-10-10-10-10-----------------------------------------------------------|
|-----------------8-8-8-8------7-7-7-7-7----5 7 8 8 8 8 8 7-----------------|
|---------------------------------------------------------------------------|
|---------------------------------------------------------------------------|
|---------------------------------------------------------------------------|
|---------------------------------------------------------------------------|
guitar 2    
|---------------------------------------------------------------------------|
|---------------------------------------------------------------------------|
|---- 7---------------------------------------------------------------------|
|--0or7---6 times---5- -6 times----4-6times---5-6 times-0-------------------|
|--0--5-------------5--------------4----------5---------0-------------------|
|--0----------------5--------------4----------5---------0-------------------|
guitar 1                  Verse
|---------------------------------------------------------------------------------------------------------|
|---------------------------7-8-8-8-8-8-8-8-7-------------------------------------7-8-8-8-8-8-8-----------|
|---------------------------------------------------------------------------------------------------------|
|---------------------------------------------------------------------------------------------------------|
|---------------------------------------------------------------------------------------------------------|
|---------------------------------------------------------------------------------------------------------|
guitar 2
|---------------------------------------------------------------------------------------------------------|
|---------------------------------------------------------------------------------------------------------|
|----------------------------------------------------------------------------------------------------------
|---5-5-----7----4-4--------4--5-5-5-5-5-5-0-0-------5-5---7---4-4---5-5--7-4-4----4-5-5-5-5-5-5----------|
|---5-5-----7----4-4--------4--5-5-5-5-5-5-0-0-------5-5---7---4-4---5-5--7-4-4----4-5-5-5-5-5-5----------|
|---5-5-----7----4-4--------4--5-5-5-5-5-5-0-0-------5-5---7---4-4---5-5--7-4-4----4-5-5-5-5-5-5----------|
 guitar 1                     Pre Chorus
|---------------------------------------------------------------------------|
|---------------------------------------------------------------------------|
|-9 9 9 9 9-----12-12-12-12-12----------------------------------------------|
|-9 9 9 9 9-----12-12-12-12-12----------------------------------------------|
|-7-7-7-7-7-----10-10 10 10 10----------------------------------------------|
|---------------------------------------------------------------------------|
guitar 2
|------------------------------------------------------------------ --------|
|---------------------------------------------------------------------------|
|---------------------------------------------------------------------------|
|-2-2-2-2-2-------5-5-5-5-5-------------------------------------------------|
|-2-2-2-2-2-------5-5-5-5-5-------------------------------------------------|
|-2-2-2-2-2-------5-5-5-5-5-------------------------------------------------|


God Bless
Tap to rate this tab
 
# A B C D E F G H I J K L M N O P Q R S T U V W X Y Z