Song name
# A B C D E F G H I J K L M N O P Q R S T U V W X Y Z

Built To Spill - Distopian Dream Girl tab

-------------------------------------------------------------------------------
			solos from Distopian Dream Girl - Built to Spill
-------------------------------------------------------------------------------
Tabbed by: Jeff

there's a lot of jimi hendrix/pete townshend sounding stuff going on in this great 
tune, here's what I could pick out

anything in () means subtleties
  at 0:12
e|-----------------------------------------------------13---13h15(*)---|
B|--10^10^10^-------------------11--10----11---------------------(15)--|
G|----------------10--10~~---------------------------------------------|
D|-------------------------(10)----------------------------------------|
A|---------------------------------------------------------------------|
E|---------------------------------------------------------------------|

*at this point just trill and pick quickly, then bend up to 17 and slow lower back to 
(see solo in James Gang's Funk 49)

e|----15--13-------------------------------------------------------------------|
B|--------------13-------13------13^-13^(p11p10)-------------------------------|
G|-------------------15-------15------------------10~~-------------------------|
D|-----------------------------------------------------------------------------|
A|-----------------------------------------------------------------------------|
E|-----------------------------------------------------------------------------|

 at 3:30
e|---------------------------------------------------------------------------|
B|-------10h11-13-11-10------------------------------------------------------|
G|--10~~----------------12--10~~--------10-----------------------------------|
D|-------------------------------(10h12----12p10-----------------------------|
A|-----------------------------------------------12p10)----etc.--------------|
E|---------------------------------------------------------------------------|


| /  slide up
| \  slide down
| h  hammer-on
| p  pull-off
| ~  vibrato
| +  harmonic
| x  Mute note
===============================================================================
Tap to rate this tab
# A B C D E F G H I J K L M N O P Q R S T U V W X Y Z