Song name
# A B C D E F G H I J K L M N O P Q R S T U V W X Y Z

Built To Spill - Rearrange tab

Help us improve GuitareTab! Take a short survey!
-------------------------------------------------------------------------------
			     Rearrange - Built to Spill
-------------------------------------------------------------------------------
Tabbed by: Jeff


notes: - Gladiators cover
       - the ending is the same as "Now and Then"
    C#
e|--4------4-----------------------------------------------------------------|
B|--6------6-----------------------------------------------------------------|
G|--6------6-----------------------------------------------------------------|
D|--6------6-----------------------------------------------------------------|
A|---------------------------------------------------------------------------|
E|---------------------------------------------------------------------------|
    C#             G#
I'm hoping and I'm praying
     F#                     C#         G#
That very soon things would re-arrange
C#                G#
Too much innocent blood-shed
    F#                  C#         G#
Our heart cries out our sole decry

C#                    G#
If man would start to make a change
         F#              C#         G#
We would all see what is buggin' us

             C#            G#
They've been fooled by our fellow man
    F#                C#           G#
And taught the way to rob and kill


C#                    G#
But remember one and all
   F#               C#               G#
No one is free till everyone is free

C#                              G#
Don't ask what your country can do for you
    F#                       C#        G#
The question is what you can do for it yeah

  slide gtr 1 w/ 1/16 note delay
e|---4/9---11\7--8---12/13--12\8--9---4/9--11\7--8---9-----------------------|
B|---------------------------------------------------------------------------|
G|---------------------------------------------------------------------------|
D|---------------------------------------------------------------------------|
A|---------------------------------------------------------------------------|
E|---------------------------------------------------------------------------|

  slide gtr 2   *gtr 3 (no slide)
e|--7/13--13--13\11----------------------------------------------------------|
B|-------*6/-----13----------------------------------------------------------|
G|---------------------------------------------------------------------------|
D|---------------------------------------------------------------------------|
A|---------------------------------------------------------------------------|
E|---------------------------------------------------------------------------|



| /  slide up
| \  slide down
| h  hammer-on
| p  pull-off
| ~  vibrato
| +  harmonic
| x  Mute note
===============================================================================
Related for Rearrange tab