Guitaretab - guitar tabs
Song name
# A B C D E F G H I J K L M N O P Q R S T U V W X Y Z

Built To Spill - Distopian Dream Girl tab

Built to Spill
Distopian Dream Girl (solo)
There’s Nothing Wrong With Love

[ Tab from: http://www.guitaretab.com/b/built-to-spill/191100.html ]
    Main Phrase 1	          ending 1		       ending 2
|-------------------|-----------------|------------------------------|
|-------------------|-----------------|------------------------------|
|-------------------|-----------------|------------------------------|
|---7h8-10-8-7------|-----------------|------------------------------|
|-8~-----------10-8~|----8--8-------8~|-10b-10b-10b-10b-10b-10b-10-8-|
|-------------------|8h10----10p8h10--|------------------------------|
	Ending 3				                       main phrase 2
|-----------------------------|--------------------------------------|
|-----------------------------|--------------------------------------|
|-----------------------------|--------------------------------------|
|-----------------------------|---7h8-10-8-7--8/12~-12/14-14-14/15---|
|-10p8---8---8—10p8--------8-8|-8~-----------------------------------|
|-----10---10------10-8-10----|--------------------------------------|

|---------------------------------------------------------------------|
|-----------------------------------------------18-18—18-18~-*18////--|
|---14---------14------14--14—14h15-15p14—17~-17-----17------*17////--|
|15----15----15--15--15--15--15----------15---------------------------|
|----------15---------------------------------------------------------|
|---------------------------------------------------------------------|

*denotes to slide continually up the fretboard then fades out with a variation on the main phrase

The solo is play with a great amount of vibrato which makes it so distinct.

Order-
Main Phrase 1
Ending 1
Main phrase 1
Ending 2
Main phrase 1
Ending 3
Main phrase 2

Tabbed by Jeff McCall
Related for Distopian Dream Girl tab
Advertisement will be closed in 10 seconds