Song name
# A B C D E F G H I J K L M N O P Q R S T U V W X Y Z

Built To Spill - Car tab

Song: Car
Artist: Built to Spill
Album: There's Nothing Wrong With Love

Tab by Devin Miller

Tuning: Standard EADGBe
**CAPO on 1st fret


************************************************************************

----------INTRO----------

Guitar 1:

e|-----------------|-----------------|-----------------|-----------------|
B|-----------------|-----------------|-----------------|-----------------|
G|-----------------|-----------------|-----------------|-----------------|
D|-------0---0-----|-----------------|-0---0-------0---|-----------------|
A|-0-2-4-------4-2-|-----------------|---0---4---0---4-|-----0---2---0---|
E|---------4-------|-2--------0-2----|---------2-------|-0-4---4---4---4-|

e|-----------------|-----------------|
B|-----------------|-----------------|
G|-----------------|-----------------|
D|-----------------|-----------------|
A|-2---0h2-0-2-----|-----0-4-0-------|
E|-------------4-0-|-2-4-------4-2---|

Guitar 2:

e|-----------------|-----------------|-----------------|-----------------|
B|-----------------|-----------------|-----------------|-----------------|
G|-----------------|-----------------|-----------------|-----------------|
D|-2-2-2-2-2-2-2-2-|-4-4-4-4-4-4-4-4-|-7-7-7-7-2-2-2-2-|-2-2-2-2-2-2-2-2-|
A|-0-0-0-0-2-2-2-2-|-4-4-4-4-4-4-4-4-|-5-5-5-5-0-0-0-0-|-2-2-2-2-2-2-2-2-|
E|---------0-0-0-0-|-2-2-2-2-2-2-2-2-|-----------------|-0-0-0-0-0-0-0-0-|

e|-----------------|-----------------|
B|-----------------|-----------------|
G|-4-4-4-4---------|-----------------|
D|-4-4-4-4-2-2-2-2-|-4-4-4-4-4-4-4-4-|
A|-2-2-2-2-2-2-2-2-|-4-4-4-4-4-4-4-4-|
E|---------0-0-0-0-|-2-2-2-2-2-2-2-2-|


You get the car, I'll get the night off
You'll get the chance to take the world apart and figure out how it works
Don't let me know what you find out

I need a car, you need a guide who needs a map
If I don't die or worse, I'm gonna need a nap
At best I'll be asleep when you get back


----------VERSE----------

Chords for guitars 1 & 2:

    A      E     F#m     D     Bm
e|--0------0------2------2------2------|
B|--2------0------2------3------3------|
G|--2------1------2------2------4------|
D|--2------2------4------0------4------|
A|--0------2------4-------------2------|
E|---------0------2--------------------|


A           E
  I wanna see it

     F#m               D                                   A
When you find out what comets, stars and moons are all about

        E
Wanna see their

F#m                                        D                  A
Faces turn to the backs of their heads and slowly get smaller

        E       F#m         A
Wanna see it now

        E     D
Wanna see it now


----------GUITAR INTERLUDE----------


Guitar 1: Play F#m the whole way thru!


Guitar 2 solo (lots of distortion, notes as if without capo):

e|-------------------------------------------------------------------|
B|-------------------------------------------------------------------|
G|-------------------------------------------------------------------|
D|-------------------------------------------------------------------|
A|-------------------------------------------------------------------|
E|-3~~~~------5~~~~-----6~~~~---8s10~~~~~-----10~~~----10-s8-s6--8---|

e|---------------|------------------------------------------------|
B|---------------|------------------------------------------------|
G|---------------|------------------------------------------------|
D|---------------|-3s5\/-\/-\-/-\~~~~~~--7--s8--s7~~~~~--s5----3--|
A|---------------|------------------------------------------------|
E|-8s6s3~~~~-----|------------------------------------------------|

e|-------------------------------------------|
B|--------x--------------8~~~~b~~~~~~~r~~~---|
G|--------x--5b~~~~~~r-----------------------|
D|-5~~----x--5b~~~~~~r-----------------------|
A|--------x----------------------------------|
E|-------------------------------------------|


----------FINAL VERSE----------

Guitars 1 & 2:

A             E             F#m
  I want specifics on the general idea

D            A                   E
  I wanna think what I should know

Bm               E             F#m
  I want you to do me what to show

E          F#m  Bm         D
  I wanna see movies of my dreams (x 4)

A          E          F#m                 D
  I wanna see it when you get stoned on a cloudy breezy desert afternoon

A          E       F#m             D
  I wanna see it untame itself and break its owner

A          E     D
  I wanna see it now (x 2)


----------OUTRO GUITAR SOLO----------

Guitar 1 : Solo (written as if without capo, for ease)
Guitar 2 : Chords shown above solo (capo 2)

   A             E              D
e|----------------------------|---------------------------------|
B|----------------------------|---------------------------------|
G|----------------------------|---------------------------------|
D|----------------------------|---------------------------------|
A|--------3h5p3-s8~~-5--3--5--|-6-6-6-5-6s8-6-8s10-8-10-12brbr--|
E|-6--6-6---------------------|---------------------------------|

   A           E             D
e|-------------------------|------------------------|
B|-------------------------|------------------------|
G|-------------------------|------------------------|
D|-------12~~--------12~~--|-13~~13s15~~15s17~~15---|
A|-13~~--------12~~--------|------------------------|
E|-------------------------|------------------------|

   A                     E            D
e|----------------------------------|--------------|
B|----------------------------------|--------------|
G|----------------------------------|--------------|
D|-13p12h13p12----------------------|--------------|
A|-------------13s15--13s17--15s13--|-13-----------|
E|----------------------------------|--------------|

A   E   D

A

************************************************************************

Sorry about confusing what is written relative to the capo or not.
Everything but the 2 guitar solos is written relative to the capo,
that's it! Enjoy!

LEGEND:

| s  slide to
| /\ whammy bar dips
| h  hammer-on
| p  pull-off
| ~  vibrato
| x  dead note
| b  bend
| r  release bend
=========================================================================
Tap to rate this tab
 
# A B C D E F G H I J K L M N O P Q R S T U V W X Y Z