Song name
# A B C D E F G H I J K L M N O P Q R S T U V W X Y Z

Built To Spill - Linus And Lucy tab

-------------------------------------------------------------------------------
                         Linus and Lucy - Built to Spill
-------------------------------------------------------------------------------
Tabbed by: Daniel M.

Tuning: Standard

*** Rough basic tab, I didn't worry too much about the little fills Randy throws 
*** in, you can just improvise that. Lead could also be rhythm guitar since they 
*** don't play at the same time much. Completely possible to play with 1 guitar.

Rhythm Guitar (Clean): Verse 
(Comes in after bass does similar riff twice before first verse)
(Play immediately after chorus with bass after that)
(After rhythm guitar plays this stop and let lead take over)

e|---------------------------|
B|---------------------------|
G|---------------------------|
D|-----7-----7---------------| x2 
A|-0-7---0-7----0-7-9-0-7-9--|
E|---------------------------|

Rhythm Guitar (Clean): Chorus
e|------------------------------------------|
B|------------------------------------------|
G|-7----9-----------------------------------|
D|-7-x3-9-x1--(Rest while lead plays riff)--| x4
A|-5----7-----------------------------------|
E|------------------------------------------|

Lead Guitar (Distorted): Verse 1
e|-----------------------------------------------------------------------------------------|
B|-----------------------------------------------------------------------------------------|
G|-----------------------------------------------------------------------------------------|
D|----9-11-11p9----9~--------9-11-11p9------------9-11-11p9-----9~---------9-9~~----9-9~~--| x2
A|-12-----------12----12~~12-----------12~-----12-----------12-----12~~-12~------12~-------|
E|-----------------------------------------------------------------------------------------|

Lead Guitar (Distorted): Chorus
e|----------------------------------------------|
B|------------10-10-10--10-10-10--10-10-10-10---|
G|-7----9------9-11-11---9-11-11---9-11-11-11---|
D|-7-x3-9-x1------------------------------------| x4
A|-5----7---------------------------------------|
E|----------------------------------------------|

Lead Guitar (Distorted): Verse 2
e|-----------------------------------------------------------------------------------------|
B|-----------------------------------------------------------------------------------------|
G|-----------------------------------------------------------------------------------------|
D|----9-11-11p9----9~--------9-11-11p9------------9-11-11p9-----9~---------9-9~~----9-9~~--| x1
A|-12-----------12----12~~12-----------12~-----12-----------12-----12~~-12~------12~-------|
E|-----------------------------------------------------------------------------------------|

e|-------------------------------------------------------------------------------|
B|---------------------------------------14--------------------------------------|
G|---------------------------------------14--------------------------------------|
D|-7-9-11-11\9-7-9~-7~~7-9-11-11\9-7/(12)----7-9-11-11\9-7-9~-7~~7~9-9~~-7~/9~~--| x1
A|-7-9-12-12\9-7-9~-7~~7-9-12-12\9-7/(12)----7-9-12-12\9-7-9~-7~~7~9-9~~-7-------|
E|-------------------------------------------------------------------------------|

Lead Guitar (Distorted): Verse 3
e|-----------------------------------------------------------------------------------------------|
B|----12h14-14p12----12~--------12h14-14p12------------12h14-14p12----12~---------12-12~~-10/12~-|
G|-14-------------14-----14~~14-------------14------14-------------14-----14~~-14~11-11~~--------|
D|--------------------------(14)----------------------------------(14)---(14)~-14~---------------|
A|-----------------------------------------------------------------------------------------------|
E|-----------------------------------------------------------------------------------------------|

e|---------------------------------------------------------------------------------------------|
B|----12h14-14p12----12~--------12-14-14p12------------12h14-14p12----12~--------12-12~~-------|
G|-14-11h14-14p11-14-11~-14~~14-11-14-14p11-14~~----14-11h14-14p11-14-11~-14~~14~11-11~~-14~~~-|
D|-14-------------14-----14~~14-------------14~~----14-------------14-----14~~14~--------------|
A|---------------------------------------------------------------------------------------------|
E|---------------------------------------------------------------------------------------------|

Rhythm Guitar (Clean): Outro
e|---------------------------|
B|---------------------------|
G|---------------------------|
D|-----7-----7---------------| x3 
A|-0-7---0-7----0-7-9-0-7-9--|
E|---------------------------|


Verse 1
Chorus
Verse 2
Chorus
Verse 3
Chorus
Outro

************************************

| /   slide up
| \   slide down
| h   hammer-on
| p   pull-off
| ~   vibrato, let ring
|()   Optional


************************************
Tap to rate this tab
 
# A B C D E F G H I J K L M N O P Q R S T U V W X Y Z