Song name
# A B C D E F G H I J K L M N O P Q R S T U V W X Y Z

Built To Spill - Car tab

-------------------------------------------------------------------------------
			     CAR - CORRECT – BUILT TO SPILL
-------------------------------------------------------------------------------
Tabbed by: Ben	
Email: dontcallmebenny@hotmail.com

Tuning: STANDARD

This is Car as is appears on There’s Nothing Wrong With Love and the Live album. 
Previous tabs seemed to be quite a bit off from what is actually played.

This is the main verse riff, played under the verse chords:

e|------------------------|------------------------------|
B|------------------------|------------------------------|
G|------------------------|------------------------------|
D|-----0-1----------------|1-0-1-3---0-1-0---------------|
A|-1-3-------5-3-1--------|--------1--------0-1-0-3-0-1-0|
E|---------1-------3--1-3-|----------------1-------------|

e|------------------------------------------------------|
B|------------------------------------------------------|
G|------------------------------------------------------|
D|---1h3p1—----1p0--------------------------------------|
A|-3------------------0-1-3-1-0-------------------------|
E|-----------1-----3-------------3-1--------------------|
The start of the second bar isn’t quite right, I can’t hear exactly what’s being played.  

First Solo Backing:

e|-------------------------------------------------------------------------|
B|-------------------------------------------------------------------------|
G|-------------------------------------------------------------------------|
D|-------------------------------------------------------------------------|
A|-----6p3------6p3--------------------------------------------------------|
E|-3-3-----6-3------6------------------------------------------------------|

Solo over this using Gmin pentatonic 1st position;

e|---------------------1-3-------------------------------------------------|
B|-----------------1-3-----------------------------------------------------|
G|-------------0-3---------------------------------------------------------|
D|---------0-3-------------------------------------------------------------|
A|-----1-3-----------------------------------------------------------------|
E|-1-3---------------------------------------------------------------------|

The verse chord structure ( “you get the car” ) is:

Bb, F, Gmin, Eb, Bb, F, Cmin, F, Gmin 

The chorus chord structure ( “when you get stoned” ) is:

Bb, F, Gmin, Eb x 2
Bb, F, Eb x 2

The bridge section ( “movies of my dreams” ) is;

F, Gmin, Cmin, Eb x 4



The song structure is;

Verse x 2
Chorus x 1
Solo ( over backing ) x 8
Verse x 1
Bridge x 4
Chorus x 2
Solo ( over chorus ) x 2


| H  hammer-on
| P  pull-off
Tap to rate this tab
# A B C D E F G H I J K L M N O P Q R S T U V W X Y Z