Built To Spill - Out Of Site tab

-----------------------------------------------------------------------------
			     Out of Site - Built to Spill
-----------------------------------------------------------------------------
Tabbed by: Ranciday
Email: julianpd@hotmail.co.uk

Awesome song. This version should be pretty damn accurate.

Main Chords:
e|-8-~---8-~-----1-------8--------------------------------------|
B|-8-~---8-~-----1-------8--------------------------------------|
G|-9-~---8-~-----2-------9--------------------------------------|
D|-10~---10~-----3-------10-------------------------------------|
A|-10~---10~-----3-------10-------------------------------------|
E|-8-~---8-~-----1-------8--------------------------------------|


Riff underneath:
e|------------------------------------------------------------------|
B|------------------------------------------------------------------|
G|--9-7-5---8---7-5------9-7-5-8-7-5-7-5---10--9--------------------|
D|------------------------------------------------------------------|
A|--7-5-3---6---5-3------7-5-3-6-5-3-5-3---8---7--------------------|
E|------------------------------------------------------------------|


e|--------------------------------------|
B|--------------------------------------|
G|--------------------------------------|
D|--10-9-12-6----5---5------------------|
A|--------------------------------------|
E|--8--7-10-4----3---3------------------|

Next bit:
e|-10~-----9~------0----------------|
B|-8-~-----7~------1----------------|
G|-0-~-----0~------0----------------|
D|-9-~-----8~------2----------------|
A|-10~-----9~------3----------------|
E|----------------------------------|

Then:
e|-1----0----3-----1-(repeat)--------|
B|-1----1----0-----1-----------------|
G|-2----0----0-----2-----------------|
D|-3----2----0-----3-----------------|
A|-3----3----2-----3-----------------|
E|-1---------3-----1-----------------|

Chorus:
e|-0----1----1----------------3-----|
B|-1----3----1----------------0-----|
G|-2----2----2--ends on this--0-----|
D|-2----0----3----------------0-----|
A|-0---------3----------------2-----|
E|-----------1----------------3-----|

This next bit seems to be played on multiple guitars:

Guitar 1:
e|--------------|
B|--------------|
G|----9--10-----|
D|-7------------|
A|----7--8------|
E|-5------------|

Guitar 2:
e|----------------------------------|
B|----------------------------------|
G|-9-10--17-16-14-12-10-10-10-------|
D|----------------------------------|
A|-7-8---15-14-12-10-8--8--8--------|
E|----------------------------------|

Guitar 1:

e|-------------------------|
B|-------------------------|
G|-888888889~--------------|
D|-------------------------|
A|-666666667~--------------|
E|-------------------------|

Ends on this:
e|---------------------|
B|---------------------|
G|---------------------|
D|-5-(repeat)----------|
A|-5-------------------|
E|-3-------------------|


Awesome bit:
e|------88-88-88-8-------------5---8--10-------|
B|---5--66-66-66-6--10~--10~---6---9--11-------|
G|-5-5--xx-xx-xx-x--9-~--8-~---5---8--10-------|
D|-5-4--77-77-77-7--10~--9-~---7---10-12-------|
A|-3-5--88-88-88-8-------10~---5---8--10-------|
E|---------------------------------------------|

Basically just repeat whats above and thats the whole song =)

Tap to rate this tab
 
# A B C D E F G H I J K L M N O P Q R S T U V W X Y Z