Song name
# A B C D E F G H I J K L M N O P Q R S T U V W X Y Z

Built To Spill - You Were Right tab

                  repeated throughout
e|----------------------------------------------------------
B|----------------------------------------------------------
G|-------------------------------------------------4----4---
D|---------7---------7--5--4-----------------------4----4---
A|---------5------------------5--------4--5--4-----2----2---
E|-------------4--5--------------4--5-----------------------


e|---------------------------------3---3---3----------------
B|---------------------------------3---3---3----------------
G|---------------------------------4---4---4----------------
D|---------------------------------5---5---5----------------
A|---------------------------------5---5---5----------------
E|-------2---3---3/5---3---3---3---3---3---3----------------


e|----------------------------------------------------------
B|----------------------5--7---<5>--------------------------
G|------7---7--7--7----------------<7>----------------------
D|----------------------------------------------------------
A|----------------------------------------------------------
E|----------------------------------------------------------

e|----------------------------------------------------------
B|----------------------------------------------------------
G|----------------------------------------------------------
D|----------------------------------------------------------
A|----------------------------------------------------------
E|--------3---5---3---7---5---3-----3---5---3---7---5---3---

e|----------------------------------------------------------
B|----------------------------------------------------------
G|----------------------------------------------------------
D|----------------------------------------------------------
A|------5------5-------5-----------5-------5-------5--------
E|---------5-------4-------4---3-------3-------3------------

e|----------------------------------------------------------
B|----------------------------------------------------------
G|----------------------------------------------------------
D|----------------------------------------------------------
A|----------2---------4----2--------------------------------
E|-----2---------2-------------2----3---5---3---7---5---3---
Tap to rate this tab
# A B C D E F G H I J K L M N O P Q R S T U V W X Y Z