Song name
# A B C D E F G H I J K L M N O P Q R S T U V W X Y Z

Built To Spill - Fling tab

FLING
-----

A    x07650
D9/A x07750
E9/A x09970
Bm   x99700

Intro

E-0---0---7--5--0--5--7--5--|
B-5---5---6--6--6--6--6--6--|
G-7---6---7--7--7--7--7--7--|
D-7---7---0--0--0--0--0--0--|
A-0---0---0--0--0--0--0--0--|
E---------------------------|

A                     D9
  Since my fling with you
               E9
Time went from popping off three times a day
   Bm
To popping off three times a week
       D9                   A
And it takes me a long time
   E9          Bm
To come to the memory of us

e--0---0---0---0---0---0--|
h-12--10---0--10--12--10--|
G-11--11--11--11--11- 11--|     feel free to variate in this part
D-12--12--12--12--12--12--|
A--0---0---0---0---0---0--|
E-------------------------|

One week later there's melody
Doing what I always waited for
And I didn't stop her
But I didn't lead her on
Tap to rate this tab
 
# A B C D E F G H I J K L M N O P Q R S T U V W X Y Z