Song name
# A B C D E F G H I J K L M N O P Q R S T U V W X Y Z

Built To Spill - Twin Falls chords

Highlighted       Show chord diagrams
TWIN FALLS
----------

[ch]Dmaj/A[/ch] x07675

Dmaj7(V)   [ch]Dmaj7/A[/ch]        C#m          F#m(IX)    E(VII)
Christmas, Twin    Falls, Idaho is her oldest memory
Dmaj7(V) [ch]Dmaj7/A[/ch]   C#m
She was  only      two
           Dmaj7(V)     [ch]Dmaj7/A[/ch]      Dm(V)
It was the first   time she     felt blue

Cafeteria, Harrison Elementary
Beneath a parachute
I saw her without shoes
7UP I touched her thumb and she knew it was me
Although she couldn't see
Unless of course she peeked

My mom's good she got me out of Twin Falls, Idaho
Before I got too old
You know how that goes
That's where she still was the summer she turned 17
In 1983, three weeks after me
Last I heard was she had twins or maybe it was three
Although I've never seen
But that don't bother me 

Ending riff (merging into "Some")

  F#m             A           B
e----------------------------------|
h----------------------------------|
G----------------------------------|
D-4-4-4-4-4-4-4-6-7-7-7-7-7-7-9--4-|
A-4-4-4-4-4-4-4-6-7-7-7-7-7-7-9/s4-|
E-2-2-2-2-2-0-2-4-5-5-5-5-5-5-7/s2-|

  F#m             A
e----------------------------------|
h----------------------------------|
G----------------------------------|
D-4-4-4-4-4-4-4-6-7----------------|
A-4-4-4-4-4-4-4-6-7~---------------|
E-2-2-2-2-2-0-2-4-5~---------------|
Tap to rate this tab
# A B C D E F G H I J K L M N O P Q R S T U V W X Y Z